>
 >
My World 2

My World 2 Guitar Tabs

Metallica - My World 2 chords, tabs, tablatures, lyrics

Guitar lessons | Add/correct | Request | Top 50 tabs Artists:  A B C D E F G H I J K L M N O P Q R S T U V W X Y Z 0-9

My World 2 Guitar Tabs – Metallica

CD, Sheet music, Poster

Do you like My World 2? Share with your friends now
TabsTabs v2Tabs v3
My World          Tuning: 2 Steps Down (C F A# D G C)


INTRO
|---------------------------|    |---------------------------|------------------|
|-2--2-----2-2-2-2-----2----| 2x |-2--2-----2-2-2-2-----3----|-2--2-----2-2-2-2-|
|-2--2-----2-2-2-2-----2----|    |-2--2-----2-2-2-2-----2----|-2--2-----2-2-2-2-|
|-0--0-----0-0-0-0-----0----|    |-0--0-----0-0-0-0-----0----|-0--0-----0-0-0-0-|
  .  .     . . . .                 .  .     . . . .            .  .     . . . .


VERSE                                    
|---------------------------------| |---------------------------|     
|-----------------------------2---| |-2----5----7----5----2-----|     
|-------------------------3-5-----| |-2----5----7----5----2-----|
|-0-0-0-3-0-0-5-0-0-0-0-0---------| |-0----3----5----3----0-----|    
    . .   . .   . .   . .


(Its my World... Its my Time)
|-9---------------12---------------|
|-9---------------12---------------|
|-7---------------10---------------|
|-0----------------0---------------|


CHORUS
|--------------------|    |--------------------|
|-2----5----7--------| 3x |-8----5----2--------|
|-2----5----7--------|    |-8----5----2--------|
|-0----3----5--------|    |-6----3----0--------|



KNOCK OUT RIFF                  (Not Only Do I Not...)
|-------------------------|     |-------------------------|-------------------------|
|-------------------------|     |-------------------------|-------------------------|
|-5-2---2-----5p2---7--8--|     |-------------------------|-------------------------|
|-3-0---0---0-3p0---5--6--|     |-3-0---0---0-3p0---5b~~~-|-3-0---0---0-3p0---5--6--|
            .


(God It Feels...)
|----------------------------7b----|    |------------7b----|
|----------------------------7b----|    |------------7b----| 3x
|-2----2-2-5-2----2-2----2-2-5b----|    |-2----2-2-5-5b----|
|-0----0-0-3-0----0-0----0-0-------|    |-0----0-0-3-------|
  .    . . . .    . .    . .              .    . . .


PICKUP                                                                FILL
|-----------------------------------|    |----------------------|     |-------------|
|-----------------------------------| 3x |-555555555-55555-7788-|     |-8----5----2-|
|-2----2-2-5-2----2-2---5---7---8---|    |----------------------|     |-8----5----2-|
|-0----0-0-3-0----0-0---3p0-5p0-6p0-|    |-33333333303333305566-|     |-6----3----0-|
  .    . . . .    .


OUTRO   (With Some C5s In Between) 
|---------------------------------|
|-2---5---7---8---7---5---7---8---|
|-2---5---7---8---7---5---7---8---|
|-0-0-3-0-5-0-6-0-5-0-3-0-5-0-6---| 
    .   .   .   .   .   .   .





Comments


Popular Metallica tabs & chords
Anethesia 1 Bass Tabs
For Whom The Bell Tolls 3 Bass Tabs
Devils Dance Chords
Escape Chords
And J For A Tabs
Cyanide Tabs
Ecstacy Of Gold 1 Tabs
Master Of Puppets Slow Tabs
Slither 1 Tabs
For Whom The Bell Tolls Ukulele


Song lyrics



↑ Back to top | Tablatures and chords are parodies/interpretations of the original songs. You may use it for private study, scholarship, research or language learning purposes only
© 2014 AZChords.com Contact us | Privacy policy | DMCA | Add/correct tabs | Request tabs | Top 50 tabs