>
 >
My World 1

My World 1 Guitar Tabs

Metallica - My World 1 chords, tabs, tablatures, lyrics

Guitar lessons | Add/correct | Request | Top 50 tabs Artists:  A B C D E F G H I J K L M N O P Q R S T U V W X Y Z 0-9

My World 1 Guitar Tabs – Metallica

CD, Sheet music, Poster

Do you like My World 1? Share with your friends now
TabsTabs v2Tabs v3
Drop D tuning 

                                    Intro 


    ----------------------------------------------
    ----------------------------------------------
    ----------------------------------------------
    ----------------------------------------------
    ----------------------------------------------     X 4
    ---0-0-0-0-0-0--3----------------------------

                 riff 1
-----------------------------------------
------------------------------------------
------------------------------------------
------------------------------------------   X 5
--------------------------------3-3-4----
-0-0-0-3-0-5-0-3----------------------


		riff 2

----------------------------------
----------------------------------
----------------------------------      X 4
----------------------------------
-0-3-5-0---------3-3-4-------------    
-0-3-5-0------------------------

                                    riff 3
-----------------------------------------------------
-----------------------------------------------------
-----------------------------------------------------
----------------------------------------------------- 
---------------------------3-3-4------0-3-5-3-0------
-0-0-0-3-0-5-0-3----------------------0-3-5-3-0------

repeat riff 3 three times then james starts sing “ the mother ---------- got in my head” 
repeat that riff until “ its my world now” then do this

--------
---------
---------
---------
---0-3-5 ~~~~  
--------



Mama why is it rainin in my room


------------------------------------------------
------------------------------------------------
------------------------------------------------
------------------------------------------------  X 4
-------------------------3-3-4-- 0-3-5-3-0------
-0-0-0-3-0-5-0-3---------------  0-3-5-3-0------

	its my world you cant have it

---------------------------------------------
----------------------------------------------
----------------------------------------------
----------------------------------------------
----------------------------------------------
--0-3-5-----0-3-5----0-3-5----0-3-5-----      

		SUCKA !

-------------------------------------------
-------------------------------------------
-------------------------------------------
-------------------------------------------   X 8
-------------------------------------------
--0-0-3-0-0-0-3-5----------------------

Then the song basically repeats its self until “ not only do I not know the answer”…..

Which is when you do this

-----------------------------------------
-----------------------------------------
-----------------------------------------
-----------------------------------------
-----------------------------------------
--3-p-0-0-3-p-0-0-3-p-0-0---------

I don’t even know what the question is



--------------------------------------
--------------------------------------
--------------------------------------   
---------------------------------------
---------------------------------------
---0-3-5-5-3-0------------------- --



then after that its only one guitar playing 

--------------------------------------
---------------------------------------
--------------------------------------
--------------------------------------   play through the whole “ god it feels like it only rains”
--------------------------------------
--0-0-0-3-3-0-0-0-0-5------------


then 

-------------------------------------------
-------------------------------------------
--------------------------------------------
--------------------------------------------
--------------------------------------------
-0-0-0 3-3-0-0-0-3-3-5-5--------------- 


“ get em out’ve my head”
         use a clean guitar

----------------------------------
----------------------------------
----------------------------------
----------------------------------
----------------------------------
-3-5-3-5-3-5-3-5 5-/-0-0--------/-------------- 
                               /  distorted/

repeat that through “enough enough” 


and that is the whole song.

This is a great song of metallicas new ablum St. Anger





Comments


Popular Metallica tabs & chords
Disposable Heroes Bass Tabs
Fight Fire With Fire 3 Bass Tabs
Frantic 3 Bass Tabs
Mercyful Fate Medley 1 Bass Tabs
Cretin Hop Tabs
Cyanide Live Tabs
Damage Case 1 Tabs
My Friend Of Misery Complete Intro Tabs
No Leaf Clover 2 Tabs
St Anger Intro Tabs


Song lyrics



↑ Back to top | Tablatures and chords are parodies/interpretations of the original songs. You may use it for private study, scholarship, research or language learning purposes only
© 2014 AZChords.com Contact us | Privacy policy | DMCA | Add/correct tabs | Request tabs | Top 50 tabs