» » »

My Friend Of Misery Tabs (ver.4)

Artists:  A B C D E F G H I J K L M N O P Q R S T U V W X Y Z # 

My Friend Of Misery Tabs (ver.4)

Metallica
Rating:
0/5 (0 votes)

Hard to play? Try these video lessons and learn fast.
                (Complete)
(Intro)
Sorry for the short, there is more to it! This is how I see the intro to “My Friend of Misery”…
                                                             
|-----------------------------------------
|-----------------------------------------
|-----------------------------------------
|-----3------3-------3-7------5------3----
|-(0)---5-(5)--5-(5)-----5-(5)--5-(5)--5--
|-----------------------------------------


|-----------------------------------------
|-----------------------------------------
|-----------------------------------------
|-----2-------2-------2-5------3-------2--
|-(0)---3-(3)---3-(3)-----3-(3)--3-(3)--3-
|-----------------------------------------
            
Hard to play? Try these video lessons and learn fast. | Correct




comments powered by Disqus
↑ Back to top | Tablatures and chords are parodies/interpretations of the original songs. You may use it for private study, scholarship, research or language learning purposes only