>
 >
My Friend Of Misery 2

My Friend Of Misery 2 Guitar Tabs

Metallica - My Friend Of Misery 2 chords, tabs, tablatures, lyrics

Guitar lessons | Add/correct | Request | Top 50 tabs Artists:  A B C D E F G H I J K L M N O P Q R S T U V W X Y Z 0-9

My Friend Of Misery 2 Guitar Tabs – Metallica

CD, Sheet music, Poster

Do you like My Friend Of Misery 2? Share with your friends now
TabsTabs v2Tabs v3


|---|-----|-----|---|--------|        |----------|-----|------------|
|---|-----|-----|---|--------|        |----------|-----|------------|
|-2-|--2--|-(2)-|-2-|-(2)--2-| Repeat |----------|-----|------------|
|-3-|--3--|-(3)-|-2-|-(2)--3-| Rhy 1  |--3---3---|-----|----2---2---|
|-0-|--0--|-(0)-|-0-|-(0)--0-|        |----5---0-|-(0)-|-(0)--3---0-|
|---|-----|-----|---|--------|        |----------|-----|------------|

                                                             Rhy 2
|-------------|-----|-------------|-----||------------------|-------|
|-------------|-----|-------------|-----||-*----------------|-------|
|-------------|-----|-------------|-----||------------------|-------|
|-----3---3---|-----|-----2---4---|-----||-------3---3----3-|---3---|
|-(0)---5---0-|-(0)-|-(0)---3---0-|-(0)-||-*-(0)---5---0----|-5---0-|
|-------------|-----|-------------|-----||------------------|-------|


|----------------|---------|----------------|-------|----------------|
|----------------|---------|----------------|-------|----------------|
|----------------|---------|----------------|-------|----------------|
|-----2---2----2-|---2-5/7-|-(7)-3---3----3-|---3---|-----2---2----2-|
|-(0)---3---0----|-3-------|-------5---0----|-5---0-|-(0)---3---0----|
|----------------|---------|----------------|-------|----------------|
 
 End Rhy 2  Rhy 3                                       End Rhy 3
|---------|---------------|--------------------|------------|
|---------|---------------|--------------------|------------|
|---------|---------------|--------------------|------------|
|---2-5/7-|-(7)-3---3---3-|-----3---------5----|-2---2----2-|
|-3-------|-------5---0---|--5-----0---3-------|---3---0----|
|---------|---------------|--------------------|------------|
     
               End Rhy 3 Rhy 4
|-----------------------|------------------|---------------------------|
|-----------------------|------------------|---------------------------|
|-----------------------|------------------|---------------------------|
|-----2--5/7-----7---7--|--3-----3-----3---|-----3----------5----------|
|--3--------------------|-----5-----0------|--5-----0----3-------------|
|-----------------------|------------------|---------------------------|

 
                                 End Rhy 4
|-------------|---------------------------|
|-------------|---------------------------|(Play
|-------------|---------------------------|  Rhy 4
|--2---2----2-|----2--5/7------7---7------|   twice)
|----3---0----|-3-------------------------|
|-------------|---------------------------|
 |
 
                                   Rhy 5
|------------------|--------------|---------------|-------------------|
|------------------|--------------|---------------|-------------------|
|------------------|--------------|---------------|---2-2--2-4-4------|
|-----5------------|-----5---5----|-------------2-|---2-2--2-4-4------|
|-0-3-------5----7-|-0-3-----5-7\-|-4-4-0-2-3-4-2-|---0-0--0----------|
|-------0-3---/5---|-------0------|-2-2---------0-|-0-----------------|
                            

                              End Rhy 5
|---------------|----------------------|
|---------------|----------------------| (Repeat
|---------------|---2-2-3-4------------|  Rhy 5)
|-------------2-|---2-2-3-4-2---2------|
|-4-4-0-2-3-4-2-|---0-0-1-2-2---2------|
|-2-2---------0-|-0---------0---0------|
         
 
|----------------|--------------------||
|----------------|------------------*-||
|----------------|--------------2-----||
|---------2------|---------2----3-----||
|-3-------2----3-|-3-------2----0---*-||
|-0-0-0-0-0--0-0-|-0-0-0-0-0--0-------||
 
 Rhy 6
|------------------|
|------------------| (This rhy. pattern is played many times at the
|------------------|  end of the song)
|-4-4--x-x-x--2--3-|
|-4-4--x-x-x--2--3-|
|-2-2--x-x-x--0--1-|
 




Solo (James Hetfield Part)

 2 guitars (next 8 bars)
|----------------------|-hold bend---------|-----------------------|
|-/10------11p10-11b13-|-----11----r11--10-|-10h11-10------10------|
|-/10------12p10-12b14-|-----12----r10---9-|---9h12-9-------9------|
|----------------------|-------------------|-----------------------|
|----------------------|-------------------|-----------------------|
|----------------------|-------------------|-----------------------|


|--------------------------------|---------------------------|
|-10h11p10\8h10p8\6h8p6-~-~-(6)\-|-/10-----------11p10-11-b--|
|--9h10p-9\7h-9p7\5h7p5-~-~-(5)\-|-/10-----------12p10-12-b--|
|--------------------------------|---------------------------|
|--------------------------------|---------------------------|
|--------------------------------|---------------------------|


|--------------------------------|------------------------------------|
|-(11)---11p10-11-b--11-rb---10--|--10h11-10-~-~-10h11p10\8-10--8h10p-|
|-(12)---12p10-12-b--12-rb---10--|---9h10--9-~-~--9h10p-9\7--9--7h9-p-|
|--------------------------------|------------------------------------|
|--------------------------------|------------------------------------|
|--------------------------------|------------------------------------|


|---------------------------|-13p10----10-13--13p10----10-13--13p10----10-|
|-8\6-8--6h8p6\5-6p5\1h5-1--|-------10--------------10--------------10----|
|-7\5-7--5h7p5\4-5p4\2h4-2--|---------------------------------------------|
|---------------------------|---------------------------------------------|
|---------------------------|---------------------------------------------|
|---------------------------|---------------------------------------------|


|-13p10----10-13p10-13p10----10-13p10-13p10----10-|
|-------10----------------10----------------10----|
|-------------------------------------------------|
|-------------------------------------------------|
|-------------------------------------------------|
|-------------------------------------------------|


|-12p8----8-12--12p8----8-12--12p8----8-|-12p8----8-12p8-----------------------|
|------10------------10------------10---|------10--------10-10-10h11p10p8-10-~-|
|---------------------------------------|--------------------------------------|
|---------------------------------------|--------------------------------------|
|---------------------------------------|--------------------------------------|
|---------------------------------------|--------------------------------------|


|-13p10----10-13--13p10----10-13--13p10----10-|
|-------10--------------10--------------10----|
|---------------------------------------------|
|---------------------------------------------|
|---------------------------------------------|
|---------------------------------------------|


|-13p10----10-13p10-13p10----10-13p10-13--13/--|
|-------10----------------10-------------------|
|----------------------------------------------|
|----------------------------------------------|
|----------------------------------------------|
|----------------------------------------------|

|-20p17----17-20--20p17----17-20--20p17----17---|-20/22--22b24--22b24-~-~---|
|-------17--------------17--------------17------|---------------------------|
|-----------------------------------------------|---------------------------|
|-----------------------------------------------|---------------------------|
|-----------------------------------------------|---------------------------|
|-----------------------------------------------|---------------------------|


|--------------------------|---------------------------|
|--------------------------|---------------------------|
|--------------------------|---------------------------|
|--------5-----------------|--------5-----5------------|
|--0--3-----------5-----7--|--0--3--------5--7--(7)\---|
|-----------0--3----/5-----|-----------0---------------|
  PM...    PM...             PM...    PM


Solo (Kirk Hammett Part)

w/ wah

|--------------------|-------------------------------|
|--16b17-------------|--(16)-------------------------|
|--16b18-------------|--(16)----16-14-~-(14)\-----14-|
|--------------------|------------------------/16----|
|--//----------------|---//--------------------------|
|--------------------|-------------------------------|
 tremolo pick


|---------------------------------------|-----------------------------------|
|---------------------------------------|--------------------------17b19-~--|
|--16b18-~--16--16b18--14-----------14--|--16b18r16p14-16b18r16p14----------|
|-------------------------16-14-16------|-----------------------------------|
|---------------------------------------|-----------------------------------|
|---------------------------------------|-----------------------------------|


|--17b20---17b20----17b20---|--17b20---r17--14-~-~------|
|---------------------------|-----------------------17--|
|---------------------------|---------------------------|
|---------------------------|---------------------------|
|---------------------------|---------------------------|
|---------------------------|---------------------------|


|---------------------------|-------------------------------|
|--17--16b17--16b17--16b17--|--------------------------14---|
|------16b18--16b18--16b18--|--14----------------14----14---|
|---------------------------|-----16-~-~-14--16-------------|
|---------------------------|-------------------------------|
|---------------------------|-------------------------------|





Comments


Popular Metallica tabs & chords
Free Speech For The Dumb Bass Tabs
Battery100 Tabs
Carpe Diem Baby 2 Tabs
Charlie Brown Theme 1 Tabs
Ecstasy Of Gold 2 Tabs
Fade To Black 2 Tabs
Fixxxer 2 Tabs
Last Carress Tabs
Metal Militia 1 Tabs
The God That Failed 5 Tabs


Song lyrics



↑ Back to top | Tablatures and chords are parodies/interpretations of the original songs. You may use it for private study, scholarship, research or language learning purposes only
© 2014 AZChords.com Contact us | Privacy policy | DMCA | Add/correct tabs | Request tabs | Top 50 tabs