>
 >
My Friend Of Misery 1

My Friend Of Misery 1 Guitar Tabs

Metallica - My Friend Of Misery 1 chords, tabs, tablatures, lyrics

Guitar lessons | Add/correct | Request | Top 50 tabs Artists:  A B C D E F G H I J K L M N O P Q R S T U V W X Y Z 0-9

My Friend Of Misery 1 Guitar Tabs – Metallica

CD, Sheet music, Poster

Do you like My Friend Of Misery 1? Share with your friends now
TabsTabs v2Tabs v3
my friend of misery- metallica

intro (this bit's actually on bass, but it sounds good on acoustic)
e----------------------------------------
b----------------------------------------
g----------------------------------------
d----3--------3--------3--7-----5-----3--
a-------5--------5-----------------------
e-0--------0--------0-------0-0---0-0---0

e-----------------------------------------
b-----------------------------------------
g-----------------------------------------
d----2--------2--------2--5-----3-----2h3-
a-------3--------3------------------------
e-0--------0--------0-------0-0---0-0-----

gtr 2 (dist)
e----------------------------------------------------
b----------------------------------------------------
g----------------------------------------------------
d-2------------0-----------2-------------0-------h/7-
a-2------------0-----------2-------------0-----------
e-0---------0--0-----------0--0----------0-0---------
 let ring throughout

main riff/verse
e--------------------------------------------
b--------------------------------------------
g--------------------------------------------
d----3-----3--------3-----3-------------3----
a-------5----0---------5-----0-------0-----5-
e-0------------------------------------------
 (pm>>>>>>>>        >>>>>>>>         >>>>>>>>

e------------------------------------
b------------------------------------
g------------------------------------
d----2-----2---2--------2-----2--/7~-
a-------3------0-----------3---------
e-0----------------------------------
 (pm>>>>>>>>>           >>>>>>>

bridge
e------------------------------------------
b------------------------------------------
g------------------------------------------
d--------5---------------------5-----------
a-0--3------------5--7----7-3-----------5--
e-----------0--3-----5----5-------0--3-----
 (pm>>>     >>>>>           (if you put in harms here it sounds cool)

chorus
e-----------------------------------------------------
b-----------------------------------------------------
g--------------------------------------------------4--
d-4--4--------------2-----------4--4------4--4-----4--
a-4--4--0--2--3--4--2-----------2--2------2--2-----2--
e-2--2--------------0------0-0--------0-0------0-0----
                          (pm>>       >>>      >>>
 cant be bothered to do the solo just now. ill post 
it when ive got time.
Pm>>>> = palm mute
~ = vibrato
/ = slide up
\ = slide down





Comments


Popular Metallica tabs & chords
Anethesia Bass Tabs
Bass Reef Bass Tabs
Dazed And Confused Bass Tabs
Fuel 2 Bass Tabs
Holier Than Thou Drum Tabs
Cyanide Tabs
Cyanide 2 Tabs
Frantic 4 Tabs
Harvester Of Sorrow 2 Tabs
Broken Beat And Scarred Ukulele


Song lyrics



↑ Back to top | Tablatures and chords are parodies/interpretations of the original songs. You may use it for private study, scholarship, research or language learning purposes only
© 2014 AZChords.com Contact us | Privacy policy | DMCA | Add/correct tabs | Request tabs | Top 50 tabs