» » »

Jump In The Fire Tabs (ver.2)

Artists:  A B C D E F G H I J K L M N O P Q R S T U V W X Y Z # 

Jump In The Fire Tabs (ver.2)

Metallica
Rating:
0/5 (0 votes)

Hard to play? Try these video lessons and learn fast.
                (Intro)
This is the Jump In The Fire intro


Intro:
           Repeat lots of times
e|------------------------------------------------|
B|---------------------------------------------o--|
G|------------------------------------------------|
D|-----------3------------------------------------|
A|----3---4-----5--4--3------------------------o--|
E|--3--6------------------------------------------|
                       
e|------------------------------------------------|
B|------------------------------------------------|
G|------------------------------------------------|
D|--------------3------------3---5^---------------|
A|-------3--5-------5--4--3----------------------|
E|--3--6------------------------------------------|
                                  ^ = Bend
            
Hard to play? Try these video lessons and learn fast. | Correct




comments powered by Disqus
↑ Back to top | Tablatures and chords are parodies/interpretations of the original songs. You may use it for private study, scholarship, research or language learning purposes only