>
 >
Jump In The Fire 2

Jump In The Fire 2 Guitar Tabs

Metallica - Jump In The Fire 2 chords, tabs, tablatures, lyrics

Guitar lessons | Add/correct | Request | Top 50 tabs Artists:  A B C D E F G H I J K L M N O P Q R S T U V W X Y Z 0-9

Jump In The Fire 2 Guitar Tabs – Metallica

CD, Sheet music, Poster

Do you like Jump In The Fire 2? Share with your friends now
Bass TabsBass Tabs v2Drum TabsTabsTabs v2Tabs v3Tabs v4Tabs v5
Guitar 1
                                                           
E||---------------------------|---------------------------|
B||---------------------------|---------------------------|
G||---------------------------|---------------------------|
D||--------------3------------|--------------3------------|
A||--------3--4-----5--4--3h0-|--------3--4-----5--4--3h0-|
E||--3--6---------------------|--3--6---------------------|


                                                                            
|--------------------------|--------------------|---------------------------|
|--------------------------|--------------------|---------------------------|
|--------------------------|--5--------3--------|---------------------------|
|--------------3-----------|--5--------3--------|--------------3------------|
|--------3--4-----5--4--3--|--3--------1--------|--------3--4-----5--4--3h0-|
|--3--6--------------------|--------------------|--3--6---------------------|


                                                                           
|--------------------------|--------------------------|--------------------|
|--------------------------|--------------------------|--------------------|
|--------------------------|--------------------------|--5--------3--------|
|--------------3-----------|--3-----------3-----------|--5--------3--------|
|--------3--4-----5--4--3--|-----5--4--3-----5--4--3--|--3--------1--------|
|--3--6--------------------|--------------------------|--------------------|


                                                        
|---------------------------|---------------------------|
|---------------------------|---------------------------|
|---------------------------|---------------------------|
|--------------3------------|--------------3------------|
|--------3--4-----5--4--3h0-|--------3--4-----5--4--3h0-|
|--3--6---------------------|--3--6---------------------|


                                                     
|---------------------------|------------------------|
|---------------------------|------------------------|
|---------------------------|------------------------|
|--5--3-----3---------------|--------------3--5------|
|--------5-----5--4-4-3-----|-----3--4--5------------|
|------------------------3--|--6---------------------|


                                                       
|---------------------------|--------------------------|
|---------------------------|--------------------------|
|---------------------------|--------------------------|
|--------------3------------|--------------3-----------|
|--------3--4-----5--4--3h0-|--------3--4-----5--4--3--|
|--3--6---------------------|--3--6--------------------|


                                                                          
|--------------------------|--------------------|-------------------------|
|--------------------------|--------------------|-------------------------|
|--------------------------|--5--------3--------|--------------------3----|
|--3-----------3-----------|--5--------3--------|--------------------3----|
|-----5--4--3-----5--4--3--|--3--------1--------|--------------------1----|
|--------------------------|--------------------|--1--3--3--1--3--0-------|


                                                                       
|---------------------|-------------------------|----------------------|
|---------------------|-------------------------|----------------------|
|---------------------|--------------------5----|------x--x--x--6------|
|------3----3----3----|--------------------5----|------x--x--x--6------|
|------3----3----3----|--------------------3----|------x--x--x--4------|
|------1----1----1----|--1--3--3--1--3--0-------|----------------------|


                                                                          
|-------------------------|---------------------|-------------------------|
|-------------------------|---------------------|-------------------------|
|--------------------3----|---------------------|--------------------5----|
|--------------------3----|------3----3----3----|--------------------5----|
|--------------------1----|------3----3----3----|--------------------3----|
|--1--3--3--1--3--0-------|------1----1----1----|--1--3--3--1--3--0-------|


                                                                       
|----------------------|-------------------------|---------------------|
|----------------------|-------------------------|---------------------|
|------x--x--x--6------|--------------------3----|---------------------|
|------x--x--x--6------|--------------------3----|------3----3----3----|
|------x--x--x--4------|--------------------1----|------3----3----3----|
|----------------------|--1--3--3--1--3--0-------|------1----1----1----|


                                                                           
-------------------------|----------------------|-------------------------|
-------------------------|----------------------|-------------------------|
--------------------5----|------x--x--x--6------|--------------------3----|
--------------------5----|------x--x--x--6------|--------------------3----|
--------------------3----|------x--x--x--4------|--------------------1----|
--1--3--3--1--3--0-------|----------------------|--1--3--3--1--3--0-------|


                                                                       
---------------------|-------------------------|----------------------|
---------------------|-------------------------|----------------------|
---------------------|--------------------5----|------x--x--x--6------|
------3----3----3----|--------------------5----|------x--x--x--6------|
------3----3----3----|--------------------3----|------x--x--x--4------|
------1----1----1----|--1--3--3--1--3--0-------|----------------------|


                                                                          
-------------------------|---------------------|-------------------------|
-------------------------|---------------------|-------------------------|
--------------------3----|---------------------|--------------------5----|
--------------------3----|------3----3----3----|--------------------5----|
--------------------1----|------3----3----3----|--------------------3----|
--1--3--3--1--3--0-------|------1----1----1----|--1--3--3--1--3--0-------|


                                                                             
--------------------|---------------------------|---------------------------|
--------------------|---------------------------|---------------------------|
----------6----6----|---------------------------|---------------------------|
----------6----6----|--------------3------------|--------------3------------|
----------4----4----|--------3--4-----5--4--3h0-|--------3--4-----5--4--3h0-|
--------------------|--3--6---------------------|--3--6---------------------|


                                                                            
--------------------------|--------------------|---------------------------|
--------------------------|--------------------|---------------------------|
--------------------------|--5--------3--------|---------------------------|
--------------3-----------|--5--------3--------|--------------3------------|
--------3--4-----5--4--3--|--3--------1--------|--------3--4-----5--4--3h0-|
--3--6--------------------|--------------------|--3--6---------------------|


                                                                           
--------------------------|--------------------------|--------------------|
--------------------------|--------------------------|--------------------|
--------------------------|--------------------------|--5--------3--------|
--------------3-----------|--3-----------3-----------|--5--------3--------|
--------3--4-----5--4--3--|-----5--4--3-----5--4--3--|--3--------1--------|
--3--6--------------------|--------------------------|--------------------|


                                                        
---------------------------|---------------------------|
---------------------------|---------------------------|
---------------------------|---------------------------|
--------------3------------|--------------3------------|
--------3--4-----5--4--3h0-|--------3--4-----5--4--3h0-|
--3--6---------------------|--3--6---------------------|


                                                     
---------------------------|------------------------|
---------------------------|------------------------|
---------------------------|------------------------|
--5--3-----3---------------|--------------3--5------|
--------5-----5--4-4-3-----|-----3--4--5------------|
------------------------3--|--6---------------------|


                                                       
---------------------------|--------------------------|
---------------------------|--------------------------|
---------------------------|--------------------------|
--------------3------------|--------------3-----------|
--------3--4-----5--4--3h0-|--------3--4-----5--4--3--|
--3--6---------------------|--3--6--------------------|


                                                                          
--------------------------|--------------------|-------------------------|
--------------------------|--------------------|-------------------------|
--------------------------|--5--------3--------|--------------------3----|
--3-----------3-----------|--5--------3--------|--------------------3----|
-----5--4--3-----5--4--3--|--3--------1--------|--------------------1----|
--------------------------|--------------------|--1--3--3--1--3--0-------|


                                                                       
---------------------|-------------------------|----------------------|
---------------------|-------------------------|----------------------|
---------------------|--------------------5----|------x--x--x--6------|
------3----3----3----|--------------------5----|------x--x--x--6------|
------3----3----3----|--------------------3----|------x--x--x--4------|
------1----1----1----|--1--3--3--1--3--0-------|----------------------|


                                                                          
-------------------------|---------------------|-------------------------|
-------------------------|---------------------|-------------------------|
--------------------3----|---------------------|--------------------5----|
--------------------3----|------3----3----3----|--------------------5----|
--------------------1----|------3----3----3----|--------------------3----|
--1--3--3--1--3--0-------|------1----1----1----|--1--3--3--1--3--0-------|


                                                                       
----------------------|-------------------------|---------------------|
----------------------|-------------------------|---------------------|
------x--x--x--6------|--------------------3----|---------------------|
------x--x--x--6------|--------------------3----|------3----3----3----|
------x--x--x--4------|--------------------1----|------3----3----3----|
----------------------|--1--3--3--1--3--0-------|------1----1----1----|


                                                                           
-------------------------|--------------------|---------------------------|
-------------------------|--------------------|---------------------------|
--------------------5----|----------6----6----|---------------------------|
--------------------5----|----------6----6----|--------------3------------|
--------------------3----|----------4----4----|--------3--4-----5--4--3h0-|
--1--3--3--1--3--0-------|--------------------|--3--6---------------------|


                                                                            
---------------------------|--------------------------|--------------------|
---------------------------|--------------------------|--------------------|
---------------------------|--------------------------|--5--------3--------|
--------------3------------|--------------3-----------|--5--------3--------|
--------3--4-----5--4--3h0-|--------3--4-----5--4--3--|--3--------1--------|
--3--6---------------------|--3--6--------------------|--------------------|


                                                       
---------------------------|--------------------------|
---------------------------|--------------------------|
---------------------------|--------------------------|
--------------3------------|--------------3-----------|
--------3--4-----5--4--3h0-|--------3--4-----5--4--3--|
--3--6---------------------|--3--6--------------------|


                                                                            
--------------------------|--------------------|---------------------------|
--------------------------|--------------------|---------------------------|
--------------------------|--5--------3--------|---------------------------|
--3-----------3-----------|--5--------3--------|--------------3------------|
-----5--4--3-----5--4--3--|--3--------1--------|--------3--4-----5--4--3h0-|
--------------------------|--------------------|--3--6---------------------|


                                                        
---------------------------|---------------------------|
---------------------------|---------------------------|
---------------------------|---------------------------|
--------------3------------|--5--3-----3---------------|
--------3--4-----5--4--3h0-|--------5-----5--4-4-3-----|
--3--6---------------------|------------------------3--|


                                                                                
------------------------|---------------------------|--------------------------|
------------------------|---------------------------|--------------------------|
------------------------|---------------------------|--------------------------|
--------------3--5------|--------------3------------|--------------3-----------|
-----3--4--5------------|--------3--4-----5--4--3h0-|--------3--4-----5--4--3--|
--6---------------------|--3--6---------------------|--3--6--------------------|


                                                                            
--------------------------|--------------------||--------------------------|
--------------------------|--------------------||--------------------------|
--------------------------|--5--------3--------||*-------------------------|
--3-----------3-----------|--5--------3--------||*--8--8--8--8--8----8--8--|
-----5--4--3-----5--4--3--|--3--------1--------||---8--8--8--8--8----8--8--|
--------------------------|--------------------||---6--6--6--6--6----6--6--|


                                                                             
------------------------|-------------------------|------------------------||
------------------------|-------------------------|------------------------||
------------------------|-------------------------|-----------------------*||
--8--8--8----6----8-----|--5--5--5--5--5----5--5--|--5--5--5----3----5----*||
--8--8--8----6----8-----|--5--5--5--5--5----5--5--|--5--5--5----3----5-----||
--6--6--6----4----6--0--|--3--3--3--3--3----3--3--|--3--3--3----1----3-----||


                                                                             
-------------------------|------------------------|-------------------------|
-------------------------|------------------------|-------------------------|
-------------------------|------------------------|-------------------------|
--8--8--8--8--8----8--8--|--8--8--8----6----8-----|--5--5--5--5--5----5--5--|
--8--8--8--8--8----8--8--|--8--8--8----6----8-----|--5--5--5--5--5----5--5--|
--6--6--6--6--6----6--6--|--6--6--6----4----6--0--|--3--3--3--3--3----3--3--|


                                                                           
-----------------------|-------------------------|------------------------|
-----------------------|-------------------------|------------------------|
-----------------------|-------------------------|------------------------|
--5--5--5----3----5----|--8--8--8--8--8----8--8--|--8--8--8----6----8-----|
--5--5--5----3----5----|--8--8--8--8--8----8--8--|--8--8--8----6----8-----|
--3--3--3----1----3----|--6--6--6--6--6----6--6--|--6--6--6----4----6--0--|


                                                                            
-------------------------|-----------------------|-------------------------|
-------------------------|-----------------------|-------------------------|
-------------------------|-----------------------|-------------------------|
--5--5--5--5--5----5--5--|--5--5--5----3----5----|--8--8--8--8--8----8--8--|
--5--5--5--5--5----5--5--|--5--5--5----3----5----|--8--8--8--8--8----8--8--|
--3--3--3--3--3----3--3--|--3--3--3----1----3----|--6--6--6--6--6----6--6--|


                                                                           
------------------------|-------------------------|-----------------------|
------------------------|-------------------------|-----------------------|
------------------------|-------------------------|-----------------------|
--8--8--8----6----8-----|--5--5--5--5--5----5--5--|--5--5--5----3----5----|
--8--8--8----6----8-----|--5--5--5--5--5----5--5--|--5--5--5----3----5----|
--6--6--6----4----6--0--|--3--3--3--3--3----3--3--|--3--3--3----1----3----|


                                                                             
-------------------------|------------------------|-------------------------|
-------------------------|------------------------|-------------------------|
-------------------------|------------------------|-------------------------|
--8--8--8--8--8----8--8--|--8--8--8----6----8-----|--5--5--5--5--5----5--5--|
--8--8--8--8--8----8--8--|--8--8--8----6----8-----|--5--5--5--5--5----5--5--|
--6--6--6--6--6----6--6--|--6--6--6----4----6--0--|--3--3--3--3--3----3--3--|


                                                                           
-----------------------|-------------------------|------------------------|
-----------------------|-------------------------|------------------------|
-----------------------|-------------------------|------------------------|
--5--5--5----3----5----|--8--8--8--8--8----8--8--|--8--8--8----6----8-----|
--5--5--5----3----5----|--8--8--8--8--8----8--8--|--8--8--8----6----8-----|
--3--3--3----1----3----|--6--6--6--6--6----6--6--|--6--6--6----4----6--0--|


                                                                            
-------------------------|-----------------------|-------------------------|
-------------------------|-----------------------|-------------------------|
-------------------------|-----------------------|-------------------------|
--5--5--5--5--5----5--5--|--5--5--5----3----5----|--8--8--8--8--8----8--8--|
--5--5--5--5--5----5--5--|--5--5--5----3----5----|--8--8--8--8--8----8--8--|
--3--3--3--3--3----3--3--|--3--3--3----1----3----|--6--6--6--6--6----6--6--|


                                                                           
------------------------|-------------------------|-----------------------|
------------------------|-------------------------|-----------------------|
------------------------|-------------------------|-----------------------|
--8--8--8----6----8-----|--5--5--5--5--5----5--5--|--5--5--5----3----5----|
--8--8--8----6----8-----|--5--5--5--5--5----5--5--|--5--5--5----3----5----|
--6--6--6----4----6--0--|--3--3--3--3--3----3--3--|--3--3--3----1----3----|


                                                                          
-------------------------|---------------------|-------------------------|
-------------------------|---------------------|-------------------------|
--------------------3----|---------------------|--------------------5----|
--------------------3----|------3----3----3----|--------------------5----|
--------------------1----|------3----3----3----|--------------------3----|
--1--3--3--1--3--0-------|------1----1----1----|--1--3--3--1--3--0-------|


                                                                       
----------------------|-------------------------|---------------------|
----------------------|-------------------------|---------------------|
------x--x--x--6------|--------------------3----|---------------------|
------x--x--x--6------|--------------------3----|------3----3----3----|
------x--x--x--4------|--------------------1----|------3----3----3----|
----------------------|--1--3--3--1--3--0-------|------1----1----1----|


                                                                           
-------------------------|----------------------|-------------------------|
-------------------------|----------------------|-------------------------|
--------------------5----|------x--x--x--6------|--------------------3----|
--------------------5----|------x--x--x--6------|--------------------3----|
--------------------3----|------x--x--x--4------|--------------------1----|
--1--3--3--1--3--0-------|----------------------|--1--3--3--1--3--0-------|


                                                                     
---------------------|-------------------------|--------------------|
---------------------|-------------------------|--------------------|
---------------------|--------------------5----|----------6----6----|
------3----3----3----|--------------------5----|----------6----6----|
------3----3----3----|--------------------3----|----------4----4----|
------1----1----1----|--1--3--3--1--3--0-------|--------------------|


                                                        
---------------------------|---------------------------|
---------------------------|---------------------------|
---------------------------|---------------------------|
--------------3------------|--------------3------------|
--------3--4-----5--4--3h0-|--------3--4-----5--4--3h0-|
--3--6---------------------|--3--6---------------------|


                                                                            
--------------------------|--------------------|---------------------------|
--------------------------|--------------------|---------------------------|
--------------------------|--5--------3--------|---------------------------|
--------------3-----------|--5--------3--------|--------------3------------|
--------3--4-----5--4--3--|--3--------1--------|--------3--4-----5--4--3h0-|
--3--6--------------------|--------------------|--3--6---------------------|


                                                                           
--------------------------|--------------------------|--------------------|
--------------------------|--------------------------|--------------------|
--------------------------|--------------------------|--5--------3--------|
--------------3-----------|--3-----------3-----------|--5--------3--------|
--------3--4-----5--4--3--|-----5--4--3-----5--4--3--|--3--------1--------|
--3--6--------------------|--------------------------|--------------------|


                                                        
---------------------------|---------------------------|
---------------------------|---------------------------|
---------------------------|---------------------------|
--------------3------------|--------------3------------|
--------3--4-----5--4--3h0-|--------3--4-----5--4--3h0-|
--3--6---------------------|--3--6---------------------|


                                                     
---------------------------|------------------------|
---------------------------|------------------------|
---------------------------|------------------------|
--5--3-----3---------------|--------------3--5------|
--------5-----5--4-4-3-----|-----3--4--5------------|
------------------------3--|--6---------------------|


                                                       
---------------------------|--------------------------|
---------------------------|--------------------------|
---------------------------|--------------------------|
--------------3------------|--------------3-----------|
--------3--4-----5--4--3h0-|--------3--4-----5--4--3--|
--3--6---------------------|--3--6--------------------|


                                                                          
--------------------------|--------------------|-------------------------|
--------------------------|--------------------|-------------------------|
--------------------------|--5--------3--------|--------------------3----|
--3-----------3-----------|--5--------3--------|--------------------3----|
-----5--4--3-----5--4--3--|--3--------1--------|--------------------1----|
--------------------------|--------------------|--1--3--3--1--3--0-------|


                                                                       
---------------------|-------------------------|----------------------|
---------------------|-------------------------|----------------------|
---------------------|--------------------5----|------x--x--x--6------|
------3----3----3----|--------------------5----|------x--x--x--6------|
------3----3----3----|--------------------3----|------x--x--x--4------|
------1----1----1----|--1--3--3--1--3--0-------|----------------------|


                                                                          
-------------------------|---------------------|-------------------------|
-------------------------|---------------------|-------------------------|
--------------------3----|---------------------|--------------------5----|
--------------------3----|------3----3----3----|--------------------5----|
--------------------1----|------3----3----3----|--------------------3----|
--1--3--3--1--3--0-------|------1----1----1----|--1--3--3--1--3--0-------|


                                                                       
----------------------|-------------------------|---------------------|
----------------------|-------------------------|---------------------|
------x--x--x--6------|--------------------3----|---------------------|
------x--x--x--6------|--------------------3----|------3----3----3----|
------x--x--x--4------|--------------------1----|------3----3----3----|
----------------------|--1--3--3--1--3--0-------|------1----1----1----|


                                                                           
-------------------------|----------------------|-------------------------|
-------------------------|----------------------|-------------------------|
--------------------5----|------x--x--x--6------|--------------------3----|
--------------------5----|------x--x--x--6------|--------------------3----|
--------------------3----|------x--x--x--4------|--------------------1----|
--1--3--3--1--3--0-------|----------------------|--1--3--3--1--3--0-------|


                                                                       
---------------------|-------------------------|----------------------|
---------------------|-------------------------|----------------------|
---------------------|--------------------5----|------x--x--x--6------|
------3----3----3----|--------------------5----|------x--x--x--6------|
------3----3----3----|--------------------3----|------x--x--x--4------|
------1----1----1----|--1--3--3--1--3--0-------|----------------------|


                                                                          
-------------------------|---------------------|-------------------------|
-------------------------|---------------------|-------------------------|
--------------------3----|---------------------|--------------------5----|
--------------------3----|------3----3----3----|--------------------5----|
--------------------1----|------3----3----3----|--------------------3----|
--1--3--3--1--3--0-------|------1----1----1----|--1--3--3--1--3--0-------|


                                                                       
----------------------|-------------------------|---------------------|
----------------------|-------------------------|---------------------|
------x--x--x--6------|--------------------3----|---------------------|
------x--x--x--6------|--------------------3----|------3----3----3----|
------x--x--x--4------|--------------------1----|------3----3----3----|
----------------------|--1--3--3--1--3--0-------|------1----1----1----|


                                                                           
-------------------------|----------------------|-------------------------|
-------------------------|----------------------|-------------------------|
--------------------5----|------x--x--x--6------|--------------------3----|
--------------------5----|------x--x--x--6------|--------------------3----|
--------------------3----|------x--x--x--4------|--------------------1----|
--1--3--3--1--3--0-------|----------------------|--1--3--3--1--3--0-------|


                                                                       
---------------------|-------------------------|----------------------|
---------------------|-------------------------|----------------------|
---------------------|--------------------5----|------x--x--x--6------|
------3----3----3----|--------------------5----|------x--x--x--6------|
------3----3----3----|--------------------3----|------x--x--x--4------|
------1----1----1----|--1--3--3--1--3--0-------|----------------------|


                                                                          
-------------------------|---------------------|-------------------------|
-------------------------|---------------------|-------------------------|
--------------------3----|---------------------|--------------------5----|
--------------------3----|------3----3----3----|--------------------5----|
--------------------1----|------3----3----3----|--------------------3----|
--1--3--3--1--3--0-------|------1----1----1----|--1--3--3--1--3--0-------|


                                                                       
----------------------|-------------------------|---------------------|
----------------------|-------------------------|---------------------|
------x--x--x--6------|--------------------3----|---------------------|
------x--x--x--6------|--------------------3----|------3----3----3----|
------x--x--x--4------|--------------------1----|------3----3----3----|
----------------------|--1--3--3--1--3--0-------|------1----1----1----|


                                                  
-------------------------|----------------------||
-------------------------|----------------------||
--------------------5----|------x--x--x--6------||
--------------------5----|------x--x--x--6------||
--------------------3----|------x--x--x--4------||
--1--3--3--1--3--0-------|----------------------||

Guitar 2
                                                           
E||---------------------------|---------------------------|
B||---------------------------|---------------------------|
G||---------------------------|---------------------------|
D||--------------3------------|--------------3------------|
A||--------3--4-----5--4--3h0-|--------3--4-----5--4--3h0-|
E||--3--6---------------------|--3--6---------------------|


                                                                            
--------------------------|--------------------|---------------------------|
--------------------------|--------------------|---------------------------|
--------------------------|--5--------3--------|---------------------------|
--------------3-----------|--5--------3--------|--------------3------------|
--------3--4-----5--4--3--|--3--------1--------|--------3--4-----5--4--3h0-|
--3--6--------------------|--------------------|--3--6---------------------|


                                                                           
--------------------------|--------------------------|--------------------|
--------------------------|--------------------------|--------------------|
--------------------------|--------------------------|--5--------3--------|
--------------3-----------|--3-----------3-----------|--5--------3--------|
--------3--4-----5--4--3--|-----5--4--3-----5--4--3--|--3--------1--------|
--3--6--------------------|--------------------------|--------------------|


                                                        
---------------------------|---------------------------|
---------------------------|---------------------------|
---------------------------|---------------------------|
--------------3------------|--------------3------------|
--------3--4-----5--4--3h0-|--------3--4-----5--4--3h0-|
--3--6---------------------|--3--6---------------------|


                                                     
---------------------------|------------------------|
---------------------------|------------------------|
---------------------------|------------------------|
--5--3-----3---------------|--------------3--5------|
--------5-----5--4-4-3-----|-----3--4--5------------|
------------------------3--|--6---------------------|


                                                       
---------------------------|--------------------------|
---------------------------|--------------------------|
---------------------------|--------------------------|
--------------3------------|--------------3-----------|
--------3--4-----5--4--3h0-|--------3--4-----5--4--3--|
--3--6---------------------|--3--6--------------------|


                                                                   
--------------------------|--------------------|------------------|
--------------------------|--------------------|------------------|
--------------------------|--5--------3--------|------------------|
--3-----------3-----------|--5--------3--------|------------------|
-----5--4--3-----5--4--3--|--3--------1--------|------------------|
--------------------------|--------------------|------------------|


                                                                            
------------------|------------------|------------------|------------------|
------------------|------------------|------------------|------------------|
------------------|------------------|------------------|------------------|
------------------|------------------|------------------|------------------|
------------------|------------------|------------------|------------------|
------------------|------------------|------------------|------------------|


                                                                                
-------------------|-----3--------------------------|--------------------------|
-------------------|--------6h3---3-6h3---3-6h3---3-|--6h3-------------6h---8~-|
----------------5--|--7---------5-------5-------5---|------5--3-----3----------|
-------------------|--------------------------------|------------5-------------|
-------------------|--------------------------------|--------------------------|
-------------------|--------------------------------|--------------------------|


                                                                          
-------------------------|---------------------|-------------------------|
-------------------------|---------------------|-------------------------|
--------------------3----|---------------------|--------------------5----|
--------------------3----|------3----3----3----|--------------------5----|
--------------------1----|------3----3----3----|--------------------3----|
--1--3--3--1--3--0-------|------1----1----1----|--1--3--3--1--3--0-------|


                                                                       
----------------------|-------------------------|---------------------|
----------------------|-------------------------|---------------------|
------x--x--x--6------|--------------------3----|---------------------|
------x--x--x--6------|--------------------3----|------3----3----3----|
------x--x--x--4------|--------------------1----|------3----3----3----|
----------------------|--1--3--3--1--3--0-------|------1----1----1----|


                                                                           
-------------------------|----------------------|-------------------------|
-------------------------|----------------------|-------------------------|
--------------------5----|------x--x--x--6------|--------------------3----|
--------------------5----|------x--x--x--6------|--------------------3----|
--------------------3----|------x--x--x--4------|--------------------1----|
--1--3--3--1--3--0-------|----------------------|--1--3--3--1--3--0-------|


                                                                     
---------------------|-------------------------|--------------------|
---------------------|-------------------------|--------------------|
---------------------|--------------------5----|----------6----6----|
------3----3----3----|--------------------5----|----------6----6----|
------3----3----3----|--------------------3----|----------4----4----|
------1----1----1----|--1--3--3--1--3--0-------|--------------------|


                                                        
---------------------------|---------------------------|
---------------------------|---------------------------|
---------------------------|---------------------------|
--------------3------------|--------------3------------|
--------3--4-----5--4--3h0-|--------3--4-----5--4--3h0-|
--3--6---------------------|--3--6---------------------|


                                                                            
--------------------------|--------------------|---------------------------|
--------------------------|--------------------|---------------------------|
--------------------------|--5--------3--------|---------------------------|
--------------3-----------|--5--------3--------|--------------3------------|
--------3--4-----5--4--3--|--3--------1--------|--------3--4-----5--4--3h0-|
--3--6--------------------|--------------------|--3--6---------------------|


                                                                           
--------------------------|--------------------------|--------------------|
--------------------------|--------------------------|--------------------|
--------------------------|--------------------------|--5--------3--------|
--------------3-----------|--3-----------3-----------|--5--------3--------|
--------3--4-----5--4--3--|-----5--4--3-----5--4--3--|--3--------1--------|
--3--6--------------------|--------------------------|--------------------|


                                                        
---------------------------|---------------------------|
---------------------------|---------------------------|
---------------------------|---------------------------|
--------------3------------|--------------3------------|
--------3--4-----5--4--3h0-|--------3--4-----5--4--3h0-|
--3--6---------------------|--3--6---------------------|


                                                     
---------------------------|------------------------|
---------------------------|------------------------|
---------------------------|------------------------|
--5--3-----3---------------|--------------3--5------|
--------5-----5--4-4-3-----|-----3--4--5------------|
------------------------3--|--6---------------------|


                                                       
---------------------------|--------------------------|
---------------------------|--------------------------|
---------------------------|--------------------------|
--------------3------------|--------------3-----------|
--------3--4-----5--4--3h0-|--------3--4-----5--4--3--|
--3--6---------------------|--3--6--------------------|


                                                                          
--------------------------|--------------------|-------------------------|
--------------------------|--------------------|-------------------------|
--------------------------|--5--------3--------|--------------------3----|
--3-----------3-----------|--5--------3--------|--------------------3----|
-----5--4--3-----5--4--3--|--3--------1--------|--------------------1----|
--------------------------|--------------------|--1--3--3--1--3--0-------|


                                                                       
---------------------|-------------------------|----------------------|
---------------------|-------------------------|----------------------|
---------------------|--------------------5----|------x--x--x--6------|
------3----3----3----|--------------------5----|------x--x--x--6------|
------3----3----3----|--------------------3----|------x--x--x--4------|
------1----1----1----|--1--3--3--1--3--0-------|----------------------|


                                                                          
-------------------------|---------------------|-------------------------|
-------------------------|---------------------|-------------------------|
--------------------3----|---------------------|--------------------5----|
--------------------3----|------3----3----3----|--------------------5----|
--------------------1----|------3----3----3----|--------------------3----|
--1--3--3--1--3--0-------|------1----1----1----|--1--3--3--1--3--0-------|


                                                                       
----------------------|-------------------------|---------------------|
----------------------|-------------------------|---------------------|
------x--x--x--6------|--------------------3----|---------------------|
------x--x--x--6------|--------------------3----|------3----3----3----|
------x--x--x--4------|--------------------1----|------3----3----3----|
----------------------|--1--3--3--1--3--0-------|------1----1----1----|


                                                                           
-------------------------|--------------------|---------------------------|
-------------------------|--------------------|---------------------------|
--------------------5----|----------6----6----|---------------------------|
--------------------5----|----------6----6----|--------------3------------|
--------------------3----|----------4----4----|--------3--4-----5--4--3h0-|
--1--3--3--1--3--0-------|--------------------|--3--6---------------------|


                                                                            
---------------------------|--------------------------|--------------------|
---------------------------|--------------------------|--------------------|
---------------------------|--------------------------|--5--------3--------|
--------------3------------|--------------3-----------|--5--------3--------|
--------3--4-----5--4--3h0-|--------3--4-----5--4--3--|--3--------1--------|
--3--6---------------------|--3--6--------------------|--------------------|


                                                       
---------------------------|--------------------------|
---------------------------|--------------------------|
---------------------------|--------------------------|
--------------3------------|--------------3-----------|
--------3--4-----5--4--3h0-|--------3--4-----5--4--3--|
--3--6---------------------|--3--6--------------------|


                                                                            
--------------------------|--------------------|---------------------------|
--------------------------|--------------------|---------------------------|
--------------------------|--5--------3--------|---------------------------|
--3-----------3-----------|--5--------3--------|--------------3------------|
-----5--4--3-----5--4--3--|--3--------1--------|--------3--4-----5--4--3h0-|
--------------------------|--------------------|--3--6---------------------|


                                                        
---------------------------|---------------------------|
---------------------------|---------------------------|
---------------------------|---------------------------|
--------------3------------|--5--3-----3---------------|
--------3--4-----5--4--3h0-|--------5-----5--4-4-3-----|
--3--6---------------------|------------------------3--|


                                                                                
------------------------|---------------------------|--------------------------|
------------------------|---------------------------|--------------------------|
------------------------|---------------------------|--------------------------|
--------------3--5------|--------------3------------|--------------3-----------|
-----3--4--5------------|--------3--4-----5--4--3h0-|--------3--4-----5--4--3--|
--6---------------------|--3--6---------------------|--3--6--------------------|


                                                                            
--------------------------|--------------------||--------------------------|
--------------------------|--------------------||--------------------------|
--------------------------|--5--------3--------||*-------------------------|
--3-----------3-----------|--5--------3--------||*--8--8--8--8--8----8--8--|
-----5--4--3-----5--4--3--|--3--------1--------||---8--8--8--8--8----8--8--|
--------------------------|--------------------||---6--6--6--6--6----6--6--|


                                                                             
------------------------|-------------------------|------------------------||
------------------------|-------------------------|------------------------||
------------------------|-------------------------|-----------------------*||
--8--8--8----6----8-----|--5--5--5--5--5----5--5--|--5--5--5----3----5----*||
--8--8--8----6----8-----|--5--5--5--5--5----5--5--|--5--5--5----3----5-----||
--6--6--6----4----6--0--|--3--3--3--3--3----3--3--|--3--3--3----1----3-----||


                                                                 
--------------------------------|-------------------------------|
--------------------------------|-------------------------------|
--------------------------------|-------------------------------|
--------------------------------|-------------------------------|
--8--8-8-8--8-8-8-8-8-8-8-8-8-8-|--8-8-8-8-8-8-8-8-8-8-8-8-8/---|
--6--6-6-6--6-6-6-6-6-6-6-6-6-6-|--6-6-6-6-6-6-6-6-6-6-6-6-6/---|


                                                       
-------------------------|----------------------------|
-------------------------|----------------------------|
--------------4----4--4--|--4--4--4-------------------|
--------------5----5--5--|--5--5--5-------------------|
--5--5--5--5--5----5--5--|--5--5--5----5-5-5-5-5--x-x-|
--3--3--3--3--3----3--3--|--3--3--3----3-3-3-3-3--x-x-|


                                                        
--------------------------|----------------------------|
--------------------------|----------------------------|
--------------------------|----------------------------|
--------------------------|----------------------------|
--8----8------------8--8--|--8------------8------------|
--6----6/-18--18/---6--6--|--6/-18--18----6/-18--18----|


                                                             
-----------------------------|------------------------------|
-----------------------------|------------------------------|
--4--4--4--4--4-4-4-4-4--4-4-|--4---------------------------|
--5--5--5--5--5-5-5-5-5--5-5-|--5---------------------------|
--5--5--5--5--5-5-5-5-5--5-5-|--5---------------------------|
--3--3--3--3--3-3-3-3-3--3-3-|--3--3-3-3-3-3-3-1-1-1-1-3/---|


                                                              
------------------------------|------------------------------|
--6-3h0---------6h3h0---------|--6-3h0---------6h3h0---------|
---------5h3h0---------5h3h0--|---------5h3h0---------5h3h0--|
------------------------------|------------------------------|
------------------------------|------------------------------|
------------------------------|------------------------------|


                                                                             
-----3----------------|--------3---------------|----3-----------------------|
--3--3----------6--3--|-----3--3--6------3-----|-------6h3------------------|
----------------------|--5------------------5b-|-----------5---5h3----3/-15-|
----------------------|------------------------|-------------------5--------|
----------------------|------------------------|----------------------------|
----------------------|------------------------|----------------------------|


                                                                   
---------15-----------------------------|-------------------------|
------15----18h15-----------------------|-------------------------|
--17--------------17h15-17h15-----15/---|-----3b------15----------|
------------------------------17--------|-----3b------15-------3b-|
----------------------------------------|--0-------0--------0--3b-|
----------------------------------------|-------------------------|


                                                             
-------------------------|----------------------------------|
-----------------0-------|--3--6h3---3--6h3---3-6h3---------|
-----15----15/---0--5b---|---------5--------5-------5/4-5h4-|
-----15----15/---0-------|----------------------------------|
--0----------------------|----------------------------------|
-------------------------|----------------------------------|


                                                          
-----------------------------|---------------------------|
--6h3------------------------|---------------------------|
------5--3-----3--5--5h7h5-3-|-----3--5h3----------------|
------------5----------------|--5---------5--3-----------|
-----------------------------|------------------5--3--1--|
-----------------------------|---------------------------|


                                                             
---------------------------|--------------------------------|
---------------------------|--18r-18--15------15----18r-18--|
---------------------------|--17r-17--15------15----17r-17--|
---------------------------|--------------17----------------|
--3r-3--1-----1------------|--------------------------------|
-----------3-------15--12--|--------------------------------|


                                                                      
--------------------------------|--------------15--------------------|
--15------15----17r17--15-------|------------------18h15-------------|
--15------15----17r17--15-------|--15--19--19------------17--15------|
------17-------------------17---|--------------------------------17--|
--------------------------------|------------------------------------|
--------------------------------|------------------------------------|


                                                                        
----------------------------|--------------------|---------------------|
------------------18b-------|----------20/-------|---------------------|
--17h-19h-17h-15------------|--------------------|---------------------|
----------------------------|--------------------|------3----3----3----|
----------------------------|--------------------|------3----3----3----|
----------------------------|--------------------|------1----1----1----|


                                                                           
-------------------------|----------------------|-------------------------|
-------------------------|----------------------|-------------------------|
--------------------5----|------x--x--x--6------|--------------------3----|
--------------------5----|------x--x--x--6------|--------------------3----|
--------------------3----|------x--x--x--4------|--------------------1----|
--1--3--3--1--3--0-------|----------------------|--1--3--3--1--3--0-------|


                                                                       
---------------------|-------------------------|----------------------|
---------------------|-------------------------|----------------------|
---------------------|--------------------5----|------x--x--x--6------|
------3----3----3----|--------------------5----|------x--x--x--6------|
------3----3----3----|--------------------3----|------x--x--x--4------|
------1----1----1----|--1--3--3--1--3--0-------|----------------------|


                                                                          
-------------------------|---------------------|-------------------------|
-------------------------|---------------------|-------------------------|
--------------------3----|---------------------|--------------------5----|
--------------------3----|------3----3----3----|--------------------5----|
--------------------1----|------3----3----3----|--------------------3----|
--1--3--3--1--3--0-------|------1----1----1----|--1--3--3--1--3--0-------|


                                                                             
--------------------|---------------------------|---------------------------|
--------------------|---------------------------|---------------------------|
----------6----6----|---------------------------|---------------------------|
----------6----6----|--------------3------------|--------------3------------|
----------4----4----|--------3--4-----5--4--3h0-|--------3--4-----5--4--3h0-|
--------------------|--3--6---------------------|--3--6---------------------|


                                                                            
--------------------------|--------------------|---------------------------|
--------------------------|--------------------|---------------------------|
--------------------------|--5--------3--------|---------------------------|
--------------3-----------|--5--------3--------|--------------3------------|
--------3--4-----5--4--3--|--3--------1--------|--------3--4-----5--4--3h0-|
--3--6--------------------|--------------------|--3--6---------------------|


                                                                           
--------------------------|--------------------------|--------------------|
--------------------------|--------------------------|--------------------|
--------------------------|--------------------------|--5--------3--------|
--------------3-----------|--3-----------3-----------|--5--------3--------|
--------3--4-----5--4--3--|-----5--4--3-----5--4--3--|--3--------1--------|
--3--6--------------------|--------------------------|--------------------|


                                                        
---------------------------|---------------------------|
---------------------------|---------------------------|
---------------------------|---------------------------|
--------------3------------|--------------3------------|
--------3--4-----5--4--3h0-|--------3--4-----5--4--3h0-|
--3--6---------------------|--3--6---------------------|


                                                     
---------------------------|------------------------|
---------------------------|------------------------|
---------------------------|------------------------|
--5--3-----3---------------|--------------3--5------|
--------5-----5--4-4-3-----|-----3--4--5------------|
------------------------3--|--6---------------------|


                                                       
---------------------------|--------------------------|
---------------------------|--------------------------|
---------------------------|--------------------------|
--------------3------------|--------------3-----------|
--------3--4-----5--4--3h0-|--------3--4-----5--4--3--|
--3--6---------------------|--3--6--------------------|


                                                
--------------------------|--------------------|
--------------------------|--------------------|
--------------------------|--5--------3--------|
--3-----------3-----------|--5--------3--------|
-----5--4--3-----5--4--3--|--3--------1--------|
--------------------------|--------------------|


                                                 
------------------------------------------------|
------------------------------------------------|
-----------------------------------------15-17--|
--------------------15-15-17h15----15-17--------|
--------13-13-15h17-------------17--------------|
--13h15-----------------------------------------|


                                                   
--------------------------18h15-------------------|
-----------------15-18h15-------18h15----15-18h15-|
--17h15----15-19----------------------17b---------|
--------17----------------------------------------|
--------------------------------------------------|
--------------------------------------------------|


                                                   
--18h15-------------------18h15-------------------|
--------18h15----15-18h15-------18h15----15-15-18-|
--------------17b---------------------17b---------|
--------------------------------------------------|
--------------------------------------------------|
--------------------------------------------------|


                                                                    
---------------------------------|---------------------18b-----18b-|
--18h15--------------------------|--18b---18-20-18-15--------------|
--------17--15------15--17b------|---------------------------------|
----------------17------------0--|---------------------------------|
---------------------------------|---------------------------------|
---------------------------------|---------------------------------|


                                                                                
--18r15-----15--------------15--|--18h15----15-18h15---------------------------|
--------18------18b---18b-------|--------18----------18h15-18h15---------------|
--------------------------------|--------------------------------17--15-----15-|
--------------------------------|----------------------------------------17----|
--------------------------------|----------------------------------------------|
--------------------------------|----------------------------------------------|


                                                                 
--------------------------|--13b---13b13-10---------------------|
------18b---18b-------15--|------------------17--15------15--17h|
--15--19~---19~-----------|--------------------------17---------|
--------------------------|-------------------------------------|
--------------------------|-------------------------------------|
--------------------------|-------------------------------------|


                                                                            
--------------------------------------|------------------------------------|
--------------------------------------|------15--18h15---------------------|
--17h15-----15--17b-15h-17-15-----15--|--17b-----------17--15------15--17r-|
--------17--------------------17------|------------------------17----------|
--------------------------------------|------------------------------------|
--------------------------------------|------------------------------------|


                                       
--------------------------------------|
--------------------------------------|
--17h15-----15--17b-15--17-15-----15--|
--------17--------------------17------|
--------------------------------------|
--------------------------------------|


                                               
----------------------------------------------|
------15--18h15-18h15----15-18h15-18h15----15-|
--17b-----------------17b---------------17b---|
----------------------------------------------|
----------------------------------------------|
----------------------------------------------|


                                                   
--------------------------------------------------|
--18h15-18h15----15-18h15-18h15----15-18h15----15-|
--------------17b---------------17----------17----|
--------------------------------------------------|
--------------------------------------------------|
--------------------------------------------------|


                                                   
--------------------------------------------------|
--18h15----15-18h15-18h15----15-18h15-18h15----15-|
--------17----------------17----------------17----|
--------------------------------------------------|
--------------------------------------------------|
--------------------------------------------------|


                                           
-----------------------------------0--15--|
--18h15-18h15-15h18h15-18h15-18b----------|
------------------------------------------|
------------------------------------------|
------------------------------------------|
------------------------------------------|


                                                   
--17-15-15-15-18-15-15-15-20-15-15-15-18-15-15-15-|
--------------------------------------------------|
--------------------------------------------------|
--------------------------------------------------|
--------------------------------------------------|
--------------------------------------------------|


                                                   
--17-15-15-15-18-15-15-15-20-15-15-15-18-15-15-15-|
--------------------------------------------------|
--------------------------------------------------|
--------------------------------------------------|
--------------------------------------------------|
--------------------------------------------------|


                                                   
--17-15-15-15-18-15-15-15-20-15-15-15-18-15-15-15-|
--------------------------------------------------|
--------------------------------------------------|
--------------------------------------------------|
--------------------------------------------------|





Comments


Popular Metallica tabs & chords
Blackened 5 Bass Tabs
For Whom The Bell Tolls Bass Tabs
Fade To Black 1 Chords
2 Bloody Horses Tabs
Ain't My Bitch 2 Tabs
And Justice For All Tabs
For Whom The Bell Tolls 7 Tabs
Minus Human Tabs
Never Never Land Tabs
The Unforgiven I 1 Tabs


Song lyrics



↑ Back to top | Tablatures and chords are parodies/interpretations of the original songs. You may use it for private study, scholarship, research or language learning purposes only
© 2014 AZChords.com Contact us | Privacy policy | DMCA | Add/correct tabs | Request tabs | Top 50 tabs