» » »

I Disappear Tabs (ver.6)

Artists:  A B C D E F G H I J K L M N O P Q R S T U V W X Y Z # 

I Disappear Tabs (ver.6)

Metallica
Rating:
0/5 (0 votes)

Hard to play? Try these video lessons and learn fast.
                This one of Metallica's coolest songs.  It's official tuning is Standard Eb,
but I am translating it to Drop-D.

As performed on the "Mission Impossible II" soundtrack
Music by James Hetfield, Kirk Hammett, and Lars Ulrich
Lyrics by James Hetfield

Drop D tuning
h      hammer on
p      pull off
b      bend
r      return
~      vibrating
/      slide up
\      slide down
PM     palm muting
x      muffled strings
TR     tremelo picking
()     ghost note
James  Guitar 1
Kirk   Guitar 2
Both   D'uh

Intro
James pt. 1 (w/ flange, x5)
e[----------------------------------------------------
B[----------------------------------------------------
G[----------------------------------------------------
D[----------------------------------------------------
A[----------------------------------------------------
D[-1--------------------------------------------------
  TR................................................

Intro
Kirk (x16)
e[----------------------------------------------------
B[----------------------------------------------------
G[----8b10r8------------------------------------------
D[----x-x--x------------------------------------------
A[-6--6b8-r6------------------------------------------
D[----------------------------------------------------

Intro
James pt. 2 (w/o flange, x4)
e[----------------------------------------------------
B[----------------------------------------------------
G[----------------------------------------------------
D[----------------------------------------------------
A[----------------------------------------------------
D[-1-----1-1------------------------------------------

Intro
James pt. 3 (w/ distortion, x7)        End on this
e[-----------------------------]---------------------------
B[-----------------------------]---------------------------
G[-----------------------------]---------------------------
D[-1--1--(1)------6--1---------]-x-x-x---------------------
A[-1--1--(1)------6--1---------]-x-x-x---------------------
D[-1--1--(1)------6--1---------]-x-x-x---------------------
              
Main Riff 
Both (w/ distortion, x3)                  End on this
e[-----------------------]---------------------------------
B[-----------------------]---------------------------------
G[-----------------------]---------------------------------
D[-1----------6--1-------]-4--4----------------------------
A[-1----------6--1-------]-4--4----------------------------
D[-1----------6--1-------]-4--4----------------------------

Verse
Both (w/ dist., x9)   Play this after 3rd time   After 6th time
e[-----------------]--------------------------[----------------------
B[-----------------]--------------------------[----------------------
G[-----------------]--------------------------[----------------------
D[-1-----1-1-1-----]-4--4---------------------[-4---4-3---3-2---2-6--
A[-1-----1-1-1-----]-4--4---------------------[-4---4-3---3-2---2-6--
D[-1-----1-1-1-----]-4--4---------------------[-4---4-3---3-2---2-6--

Play this at the end of the 1st verse (9th time)
e[------------------
B[------------------
G[------------------
D[-4--4-------------
A[-4--4-------------
D[-4--4-------------

Then play Kirk's Intro (x4)

Repeat Verse

End the second verse on this
e[----------------------------------------------------
B[----------------------------------------------------
G[----------------------------------------------------
D[-4---3---1------------------------------------------
A[-4---3---1------------------------------------------
D[-4---3---1------------------------------------------

Chorus
Both (w/ distortion, x2)
e[-14--13---------------------------------------------
B[---------14-----------------------------------------
G[-------------13-------------------------------------
D[-----------------13---------------------------------
A[----------------------------------------------------
D[----------------------------------------------------

Main Riff

Verse 3 (Play like Verse 2)
Between the 4th and 5th times, add this
e[-----------------------------------
B[-----------------------------------
G[-----------------------------------
D[-x-x-x-----------------------------
A[-x-x-x-----------------------------
D[-x-x-x-----------------------------

On the 6-9th times, Kirk adds this in
e[----------------------------------------------------
B[----------------------------------------------------
G[-11\------------------------------------------------
D[-11\------------------------------------------------
A[----------------------------------------------------
D[----------------------------------------------------

Chorus

Interlude
Both (w/ distortion, x3)
e[----------------------------------------------------
B[----------------------------------------------------
G[----------------------------------------------------
D[----------------------------------------------------
A[-1-----4--1-----------------------------------------
D[-1-----4--1-----------------------------------------

GUITAR SOLO
Kirk (w/ distortion, x6)        Play this after the 3rd and 6th times
e[----------------------------]--------------------------------------
B[----------------------------]--------------------------------------
G[-8--11-(8)-11---------11~~~-]-13p11---13p11----13p11----15p11------
D[-8--11-(8)-11---/11h13------]------13-------13-------13-------13---
A[----------------------------]--------------------------------------
D[----------------------------]--------------------------------------

Post Solo
Both (w/ distortion, x6)  Play this after the 3rd and 6th times
e[----------------------]---------------------------------------
B[----------------------]---------------------------------------
G[----------------------]---------------------------------------
D[-1--6-1---4-4---------]-1--6-1--------------------------------
A[-1--6-1---4-4---------]-1--6-1--------------------------------
D[-1--6-1---4-4---------]-1--6-1---4-3-2------------------------
  Add Kirk's intro after 3rd time

Chorus (Play whole thing x2)

Play Interlude

End on this
e[-----------------------------------
B[-----------------------------------
G[-----------------------------------
D[-x-x-x-----------------------------
A[-x-x-x-----------------------------
D[-x-x-x-----------------------------



Cool.

Song Structure
James' Intro pt. 1
Kirk's Intro
James' Intro pt. 2
James' Intro pt. 3 (Continue playing Kirk's part under James' parts 2 & 3)
Main Riff
Verse
Kirk's Intro 
Verse
Chorus
Main Riff
Verse
Chorus
Interlude
GUITAR SOLO
Post Solo
Chorus
Ending

Done.
            
Hard to play? Try these video lessons and learn fast. | Correct




comments powered by Disqus
↑ Back to top | Tablatures and chords are parodies/interpretations of the original songs. You may use it for private study, scholarship, research or language learning purposes only