» » »

Metallica, I Disappear Tabs (ver.3)

Artists:  A B C D E F G H I J K L M N O P Q R S T U V W X Y Z # 

I Disappear Tabs (ver.3)

Metallica Tabs
 Rating:
4/5 (4 votes)
I Disappear lessons Tabs too difficult? Try these video lessons and learn fast
1
                standard tuning

^ = bend
/ = slide
  intro
|-----------------------------------------------------------------------------|
|-----------------------------------------------------------------------------|reapeat 3 times
|----9^-------9^----9^------9^---9^-------------------------------------------|
|-----------------------------------------------------------------------------|
|-----------------------------------------------------------------------------|
|--0------00------00------00---00---------------------------------------------|


|--------------------------------------------| 
|--------------------------------------------| this is played through the end of the into
|--------------------------------------------| and then carrys on unill first verse.
|--2-2---2-----2-2---2---2-2---2----5--5-----|
|--2-2---0-----2-2---0---2-2---0----5--5-----|
|--0-0---------0-0-------0-0--------3--3-----|

  verse
|------------------------------------------------|
|------------------------------------------------|play this 2 times. 
|------------------------------------------------|
|--2----2-2-2----2-2-2---2-2-2---5-5--4-4--3-3---|then it goes back to the intro and then to the solo.
|--2----2-2-2----2-2-2---2-2-2---5-5--4-4--3-3---|
|--0----0-0-0----0-0-0---0-0-0---3-3--2-2--1-1---|

  short solo
|---------------------------------------------------------------
|---------------------------------------------------------------
|------12--12--------12---12--12--------12----12--12------12----
|------12--12--9-9/12-----12--12--9-9/12----12--12--9-9/12------
|---------------------------------------------------------------
|---00--------------------00----------------00------------------


|-----------------------------------------------------------------------------|
|-----------------------------------------------------------------------------|
|-----13p-12----------13p-12-------13p-12-----13p-12-------13p-12-------13^---|all of this is played quite
|------------12--------------12-----------12---------12-----------12----------|fast!
|-----------------------------------------------------------------------------|
|-----------------------------------------------------------------------------|

hope you enjoy!
its not right, it sounds kinda right but its just fun to play and sounds good!
            
Submit corrections

comments powered by Disqus
↑ Back to top | Metallica Tabs for I Disappear. Lyrics for acoustic guitar and electric guitar. 1 Tablatures and chords are parodies/interpretations of the original songs. You may use it for private study, scholarship, research or language learning purposes only