» » »

Metallica, I Disappear Tabs (ver.1)

Artists:  A B C D E F G H I J K L M N O P Q R S T U V W X Y Z # 

I Disappear Tabs (ver.1)

Metallica Tabs
 Rating:
4/5 (4 votes)
I Disappear lessons Tabs too difficult? Try these video lessons and learn fast
                "I Disappear"


I can't label riffs well, so just bear with the Riff Q if that ends up 
happening.
Plus, I'm doing as much as I can stand to type right now, so if I'm missing a
couple of fills or have stuff wrong somewhere, I'll catch it and come fix it 
soon.  Some parts I'm not sure about anyway.  But here it is, before the 
song even hits radio.


TAB LEGEND
h - hammer on
p - pull off
b - bend string up
r - release bend
/ - slide up
\ - slide down
v - vibrato (sometimes written as ~)
t - tap (with strumming hand)
x - muted, struck string



All guitars tuned down 1/2 step


Riff A1 (Gtr. 1)   Repeat 8 times (I think)
Eb|--------------------------------------|
Bb|*------------------------------------*|
Gb|--------9b10r9-------------9b10r9-----|
Db|--2---------------2--2-------------2--|
Ab|*-2---------------2--2-------------2-*|
Eb|--0---------------0--0-------------0--|


Riff A2 (Gtr. 2)  Repeat 4 times
Eb|----------------------------------|
Bb|*--------------------------------*|
Gb|----------------------------------|
Db|--2-----9-----7-----2----9----7---|
Ab|*-2-----9-----7-----2----9----7--*|
Eb|--0-----7-----5-----0----7----5---|


Riff B       Repeat 4 times 	    After fourth time (leading into verse)
Eb|--------------------------|      |------------|
Bb|*------------------------*|      |------------|
Gb|--------------------------|      |------------|
Db|--------------------------|      |-5-----5----|
Ab|*-2----------------------*|      |-5-----5----|
Eb|--0-----------/7-------5--|      |-3-----3----|


Verse Riff
Eb|------------------------------------------------------------------------|
Bb|*----------------------------------------------------------------------*|
Gb|------------------------------------------------------------------------|
Db|--2-------2--2------2------2--2-------2------2--2------2-----5--5-------|
Ab|*-2-------2--2------2------2--2-------2------2--2------2-----5--5------*|
Eb|--0-------0--0------0------0--0-------0------0--0------0-----3--3-------|


Riff C    Pre-Chorus
Db|--9-9----7-7-------------------------2-----2-----2--2------2----2---|
Ab|*-7-7----5-5----3-3----2-2-----------2-----2-----2--2------2----2--*|
Eb|--0-0-----------0-0----3-3--2h3p2p0--0-----0-----0--0------0----0---|


Riff D    Leads from Pre-Chorus to Chorus
Ab|---5---------4------------2----------|
Eb|---3---------2------------0----------|


Chorus is whammy bar effects with some harmonics on the (I think) 5th fret.  
No
big deal to pull off.  Very easy.


Solo Part.  It's not accurate, but it's a start.  Repeat once
Eb|--------------------------------------------------------------------------
Bb|*-------12------------------------12--12--12--------------------12--12----
Gb|--------12----------------12b-----12--12--12-------------12b----12--12----
Db|---------------/12---14------------------------/12--14--------------------
Ab|*-------------------------------------------------------------------------
Eb|---0---------------------------0------------------------------0-----------


   
-12---------------------12--12--12----------------------------------------
-12-------------12b-----12--12--12---------------12---14p12----14p12------
-----/12---14-------------------------/12---14--------------14-------14---
---------------------0----------------------------------------------------


   --------------------------------|
   -------------------------------*|
   -14p12----14p12----/16p14p12----|
   -------14-------14--------------|
   -------------------------------*|
   --------------------------------|


Riff E  (The *really* cool part)
Db|-2---------------------2----------------------2--------------------2-----
Ab|-2------------5---5----2------------5---5-----2-----------5---5----2-----
Eb|-0----3b-0----3---3----0----3b-0----3---3-----0----3b-0---3---3----0-----


   ---------------------|
   ---------5--4--3-----|
   -3b-0----3--2--1-----|


Riff E2 (Two-guitar; follows Riff E)
Gb|------9b10r9------------------9b10r9-------------------9b10r9----------------
Db|-2-----------------------2------------------------2----------------------2---
Ab|-2--------------5---5----2--------------5---5-----2-------------5---5----2---
Eb|-0----3b---0----3---3----0----3b---0----3---3-----0----3b---0---3---3----0---


   -9b10r9----------------|
   -----------------------|
   -----------5--4--3-----|
   -3b---0----3--2--1-----|



That's pretty much it.  The Chorus comes again.  The song ends with Riff A's 
wah bend
at the 9th fret.  If you have any corrections/comments, please let me know.  
My email
*should* be at the top of this page, if they treat this submission like the 
others.
            
Submit corrections

comments powered by Disqus
↑ Back to top | Metallica Tabs for I Disappear. Lyrics for acoustic guitar and electric guitar. Tablatures and chords are parodies/interpretations of the original songs. You may use it for private study, scholarship, research or language learning purposes only