» » »

Hero Of The Day Tabs (ver.1)

Artists:  A B C D E F G H I J K L M N O P Q R S T U V W X Y Z # 

Hero Of The Day Tabs (ver.1)

Metallica
Rating:
0/5 (0 votes)

Hard to play? Try these video lessons and learn fast.
                Metallica - Hero Of The Day
A Good Slow Song At An Easy Pace
E-----------------------------------------------------------
B-----------------------------------------------------------
G-------------2------2------2-------2------3-----3------3---
D-----------2-------2------2------2------5---5-----5------5-
A-----0--0---------2------4------5-------6-------6-----6------       
E----2--2-------------------------------------------------

Chorus
G------------1---1----1----1---3333333333333
D------------1--11----1----1---5555555555555
A-----0-0-0----1--1----3----4--6666666666666
E----2-2-2---------------------------------

Interlude
But Now The Dreams........
D---4--4---4
A---4--4---4
E---0--2---3

The Solo Strats
E-----------------4------------------4s---9-9-9-8-8-8-6-6-6-6-6---------------4
B---6-4-4-6-4-6-6---4--6-4-4-6-4-6-6---4------------------------6-4-4-6-4-6-6---4

E------------------4s------11-11-11-9-9-11-13-13-13
B---6-4-4-6-4-6-6----4-----------------------------

Rate The Tab Its My First.Also Metallica Tabs Are Always Good There The God's Of Metal
            
Hard to play? Try these video lessons and learn fast. | Correct




comments powered by Disqus
↑ Back to top | Tablatures and chords are parodies/interpretations of the original songs. You may use it for private study, scholarship, research or language learning purposes only