>
 >
Hero Of The Day Complete

Hero Of The Day Complete Guitar Tabs

Metallica - Hero Of The Day Complete chords, tabs, tablatures, lyrics

Guitar lessons | Add/correct | Request | Top 50 tabs Artists:  A B C D E F G H I J K L M N O P Q R S T U V W X Y Z 0-9

Hero Of The Day Complete Guitar Tabs – Metallica

CD, Sheet music, Poster

Do you like Hero Of The Day Complete? Share with your friends now
Tabs
Tuning: (Eb Ab Db Gb Bb Eb) -- Down 1/2 Step


[Fill 1]
Eb|-----------|
Bb|-----------|
Gb|-----------|
Db|-----------|
Ab|-----0-----|
Eb|--2-----2--|


[Riff 1]
Eb|---------------------------------------------------------|
Bb|---------------------------------------------------------|
Gb|-------2-----------2-----------2-----------2-----------4-|
Db|----2-----------2-----------2-----------2-----------6----|
Ab|-0-----------2-----------4-----------5-----------7-------|
Eb|---------------------------------------------------------|

Eb|--------------------------------------|
Bb|--------------------------------------|
Gb|----------4-----------4---------------|
Db|-6-----------6-----------6--\---------|
Ab|-------7-----------7-------------0----|
Eb|------------------------------2-----2-|


[Riff 2]
Eb|---------------------------------------------------------|
Bb|---------------------------------------------------------|
Gb|-------2-----------2-----------2-----------2-----4-------|
Db|----2-----------2-----------2-----------2--------4h6-----|
Ab|-0-----------2-----------4-----------5-----------7----7--|
Eb|---------------------------------------------------------|

Eb|---------------------------------------|
Bb|---------------------------------------|
Gb|-4----------4-----------4--4h6p4-------|
Db|------6-----------6-------------6--6h7-|
Ab|---------7-----------7-----------------|
Eb|---------------------------------------|


[Riff 3]
Eb|---------------------------------------------------------|
Bb|---------------------------------------------------------|
Gb|-------2-----------2-----------2-----------2-----4-------|
Db|----2-----------2-----------2-----------2--------4h6-----|
Ab|-0-----------2-----------4-----------5-----------7----7--|
Eb|---------------------------------------------------------|

Eb|--------------------------------|
Bb|--------------------------------|
Gb|-4----------4--------4h6--6-----|
Db|-------6-------------6----6--6\-|
Ab|----------7-------7-------------|
Eb|--------------------------------|


[Riff 4]
Eb|--------------------------------------------------------|
Bb|--------------------------------------------------------|
Gb|-------2-----------2-----------2-----------2------------|
Db|----2-----------2-----------2-----------2--------4h6--6-|
Ab|-0-----------2-----------4-----------5-----------7----7-|
Eb|-------------------------------------------------0----0-|

Eb|--------------------------------------|
Bb|--------------------------------------|
Gb|--------------------------------------|
Db|-6-----6-----4--4h6--6--6-------------|
Ab|-7-----7-----7--7----7--7--------0----|
Eb|-0-----0-----0--0----0--0-----2-----2-|


[Riff 5]
Eb|---------------------------------------------------------|
Bb|---------------------------------------------------------|
Gb|-------2-----------2-----------2-----------2-----7//9--9-|
Db|-------2-----------2-----------2-----------2-------------|
Ab|-0-----------2-----------4-----------5-----------5//7--7-|
Eb|---------------------------------------------------------|
                                 End 1:     End 2:
Eb|------------------------------|----------|----------|
Bb|------------------------------|----------|----------|
Gb|-9--9--9--9--9-11/13-13-13-13-|14-14~~~\-|----------|
Db|------------------------------|----------|----------|
Ab|-7--7--7--7--7--9/11-11-11-11-|12-12~~~\-|-x-x-12\\-|
Eb|------------------------------|----------|-x-x-12\\-|


[Riff 6]
Eb|---------------------------------------------------------|
Bb|---------------------------------------------------------|
Gb|-------2-----------2-----------2-----------2-----------4-|
Db|----2-----------2-----------2-----------2-----------6----|
Ab|-0-----------2-----------4-----------5-----------7-------|
Eb|---------------------------------------------------------|

Eb|---------------------------------------|
Bb|---------------------------------------|
Gb|----------4-----------4-----------4h6--|
Db|-6-----------6-----------6-------------|
Ab|-------7-----------7-----------7-------|
Eb|---------------------------------------|


[Riff 7]
Eb|-------------------------------------------------|
Bb|-------------------------------------------------|
Gb|-------------------------------------------------|
Db|-4--4-----4-----4-----4-----4-----4-----4-4-4--4-|
Ab|-4--4-----4-----4-----4-----4-----4-----4-4-4--4-|
Eb|-2--2-----2-----2-----2-----2-----2-----0-2-3--0-|


[Fill 2]
Eb|-------------------------------------------------|
Bb|-------------------------------------------------|
Gb|-------------------------------------------------|
Db|-4--4-----4-----4-----4-----4-----4--------------|
Ab|-4--4-----4-----4-----4-----4-----4--------0-----|
Eb|-2--2-----2-----2-----2-----2-----2-----2-----2--|


[Solo]
Eb|-------------------5--------------------------5/10-10|
Bb|-7--5--7--5-7--7-5----7----7--5--7--5-7--7-5---------|
Gb|-----------------------------------------------------|
Db|-----------------------------------------------------|
Ab|-----------------------------------------------------|
Eb|-----------------------------------------------------|

Eb|10-9999999977777777777777777\-------------------5----|
Bb|------------------------------7--5--7--5-7--7-5----7-|
Gb|-----------------------------------------------------|
Db|-----------------------------------------------------|
Ab|-----------------------------------------------------|
Eb|-----------------------------------------------------|

Eb|-------------------5/12-121212-101012-12-14-16''-----|
Bb|-7--5--7--5-7--7-5-----------------------------------|
Gb|-----------------------------------------------------|
Db|-----------------------------------------------------|
Ab|-----------------------------------------------------|
Eb|-----------------------------------------------------|

Eb|--17--|--17--|--17--|-17\16-16-16-16\14-14\12-|--12--|
Bb|---x--|---x--|---x--|--x-----x--x--x-----x----|---x--|
Gb|--14--|--14--|--14--|-14\13-13-13-13\11-11\-9-|---9--|
Db|------|------|------|-------------------------|------|
Ab|------|------|------|-------------------------|------|
Eb|------|------|------|-------------------------|------|

Eb|--12--|--12--|----22-22-22\21-21\-|
Bb|---x--|---x--|-----x--x--x--x--x--|
Gb|---9--|---9--|----19-19-19\18-18\-|
Db|------|------|--------------------|
Ab|------|------|--------------------|
Eb|------|------|--------------------|


The Sequence:

[Fill 1]    1x  (00:00)
[Riff 1]    1x  (00:01)
[Riff 2]    1x  (00:10)
[Riff 1]    1x  (00:19)
[Riff 3]    1x  (00:27)
[Riff 4]    2x  (00:36)
[Riff 5]w/1 2x  (00:52)
[Riff 1]    1x  (01:09)
[Riff 6]    1x  (01:18)
[Riff 1]    1x  (01:26)
[Riff 3]    1x  (01:35)
[Riff 4]    4x  (01:43)
[Riff 5]w/1 1x  (02:00)
[Riff 5]w/2 1x  (02:08)
[Riff 7]    5x  (02:17)
[Fill 2]    1x  (02:36)
[ Solo ]    1x  (02:40)
[Riff 7]    End (03:13)





Comments


Popular Metallica tabs & chords
Black Night 1 Bass Tabs
Carol Of The Bells Bass Tabs
Cunning Stunts Bass Tabs
Enter Sandman Chords
Fuel 1 Chords
Blackened Drum Tabs
Astronomy Tabs
Frantic Riff Tabs
The House That Jack Built Tabs
Creeping Death Ukulele


Song lyrics



↑ Back to top | Tablatures and chords are parodies/interpretations of the original songs. You may use it for private study, scholarship, research or language learning purposes only
© 2014 AZChords.com Contact us | Privacy policy | DMCA | Add/correct tabs | Request tabs | Top 50 tabs