>
 >
Harvester Of Sorrow 2

Harvester Of Sorrow 2 Bass Tabs

Metallica - Harvester Of Sorrow 2 chords, tabs, tablatures, lyrics

Guitar lessons | Add/correct | Request | Top 50 tabs Artists:  A B C D E F G H I J K L M N O P Q R S T U V W X Y Z 0-9

Harvester Of Sorrow 2 Bass Tabs – Metallica

CD, Sheet music, Poster

Do you like Harvester Of Sorrow 2? Share with your friends now
Bass TabsBass Tabs v2TabsTabs v2Tabs v3Tabs v4Tabs v5
Band: Metallica
Bassist: Jason Newsted
Tuning: Standard

Intro
  0:00
G|-------------------|
D|-------------------| x2
A|-------2-1-0-------|
E|-3-2-0-------3-2-0-|

  0:13
G|------------|
D|------------|
A|------------|
E|-1/7\-0---0-|

  0:25
G|-------------|-----------------|
D|-------------|-----------------|
A|----7\-------|--------7\-----5-|
E|-0-----0-5-7-|-0-0-0-----0-3---|

  0:29
G|-----------------|-----------------|
D|-----------------|-----------------| x2
A|--------7\-------|--------7\-----5-|
E|-0-0-0-----0-5-7-|-0-0-0-----0-3---|

  0:40
G|-----------------|-----------|
D|-----------------|-----------|
A|--------7\-------|--------7\-|
E|-0-0-0-----0-5-7-|-0-0-0-----|

  0:44
G|-------------------|
D|-------------------|
A|-------2-1-0-------|
E|-3-2-0-------3-2-0-|

  0:45
G|---------------------------|---------------------------|
D|---------------------------|---------------------------| x2
A|-------------------2\1-----|-------------------2\1-----|
E|-0--0-0-0--0-0-3\2-----3\2-|-1--1-1-1--1-1-3\2-----3\2-|

  0:56
G|---------------------------|---------------------------------|
D|---------------------------|---------------------------------|
A|-------------------2\1-----|---------------------------------|
E|-0--0-0-0--0-0-3\2-----3\2-|-1--1-1-1--1-1-3-2-0-5-5-5-3-3-0-|

  1:18
G|---------------------|
D|---------------------| x3
A|---------1---7---7-7-|
E|-0-0-1-2---0---0-----|

  1:26
G|-------------------|
D|-------------------|
A|---------5---------|
E|-0-0-1-2----3--3-3-|

  1:29
G|---------------------|-------------------|
D|---------------------|-------------------|
A|---------1---7---7-7-|---------5---------|
E|-0-0-1-2---0---0-----|-0-0-1-2----3--3-3-|

Verse 1
  1:34
G|-------------------|
D|-------------------| x3
A|-------------------|
E|-0-0-1-2-0--0--0-0-|

  1:42
G|-------------------|
D|-------------------|
A|-------------------|
E|-0-0-1-2-3--3--3-3-|

  1:44
G|-----------|-----------|-------------------|
D|-----------|-----------|-------------------|
A|-----------|-----------|-------------------|
E|-0-0-1-2-0-|-0-0-1-2-0-|-0-0-1-2-0--0--0-0-|

  1:49
G|-------------------|-------------------------|
D|-------------------|-------------------------|
A|-------------------|-------------------------|
E|-0-0-1-2-0--0--0-0-|-0-0-1-2-3--3--3-3-0-1-0-|

  1:59
G|-----------|-----------|-------------------------|
D|-----------|-----------|-------------------------|
A|-----------|-----------|-------------------------|
E|-0-0-1-2-0-|-0-0-1-2-0-|-0-0-1-2-0--0--0-0-0-1-0-|

  2:10
G|---------------------------|---------------------------------|
D|---------------------------|---------------------------------|
A|-------------------2\1-----|---------------------2-1-0-------|
E|-0--0-0-0--0-0-3\2-----3\2-|-1--1-1-1--1-1-3-2-0-------3-2-0-|

Chorus
  2:15
G|---------------------------|---------------------------|
D|---------------------------|---------------------------|
A|-------------------2\1-----|-------------------2\1-----|
E|-0--0-0-0--0-0-3\2-----3\2-|-1--1-1-1--1-1-3\2-----3\2-|

  2:21
G|---------------------------|---------------------------------|
D|---------------------------|---------------------------------|
A|-------------------2\1-----|---------------------------------|
E|-0--0-0-0--0-0-3\2-----3\2-|-1--1-1-1--1-1-3-2-0-5-5-5-3-3-0-|

  2:30
G|---------------------|
D|---------------------| x3
A|---------1---7---7-7-|
E|-0-0-1-2---0---0-----|

  2:38
G|-------------------|
D|-------------------|
A|---------5---------|
E|-0-0-1-2----3--3-3-|

Verse 2
  2:41
G|-------------------|
D|-------------------| x3
A|-------------------|
E|-0-0-1-2-0--0--0-0-|

  2:49
G|-------------------|
D|-------------------|
A|-------------------|
E|-0-0-1-2-3--3--3-3-|

  2:51
G|-----------|-----------|-------------------|
D|-----------|-----------|-------------------|
A|-----------|-----------|-------------------|
E|-0-0-1-2-0-|-0-0-1-2-0-|-0-0-1-2-0--0--0-0-|

  2:56
G|-------------------|-------------------------|
D|-------------------|-------------------------|
A|-------------------|-------------------------|
E|-0-0-1-2-0--0--0-0-|-0-0-1-2-3--3--3-3-0-1-0-|

  3:07
G|-----------|-----------|-------------------------|
D|-----------|-----------|-------------------------|
A|-----------|-----------|-------------------------|
E|-0-0-1-2-0-|-0-0-1-2-0-|-0-0-1-2-0--0--0-0-0-1-0-|

  3:17
G|---------------------------|---------------------------------|
D|---------------------------|---------------------------------|
A|-------------------2\1-----|---------------------2-1-0-------|
E|-0--0-0-0--0-0-3\2-----3\2-|-1--1-1-1--1-1-3-2-0-------3-2-0-|

Chorus
  3:22
G|---------------------------|---------------------------|
D|---------------------------|---------------------------|
A|-------------------2\1-----|-------------------2\1-----|
E|-0--0-0-0--0-0-3\2-----3\2-|-1--1-1-1--1-1-3\2-----3\2-|

  3:28
G|---------------------------|---------------------------------|
D|---------------------------|---------------------------------|
A|-------------------2\1-----|---------------------------------|
E|-0--0-0-0--0-0-3\2-----3\2-|-1--1-1-1--1-1-3-2-0-5-5-5-3-3-0-|

  3:35
G|------|
D|------|
A|------|
E|-0--0-|

Guitar solo
  3:43
G|-----------|-----------|-------------------|
D|-----------|-----------|-------------------|
A|-----------|-----------|-------------------|
E|-0-0-1-2-0-|-0-0-1-2-0-|-0-0-1-2-0--0--0-0-|

  3:48
G|-----------|-----------|-------------------|
D|-----------|-----------|-------------------|
A|-----------|-----------|-------------------|
E|-0-0-1-2-0-|-0-0-1-2-0-|-0-0-1-2-3--3--3-3-|

  3:53
G|-----------|-----------|------------------------|
D|-----------|-----------|------------------------|
A|-----------|-----------|------------------------|
E|-0-0-1-2-0-|-0-0-1-2-0-|-0-0-1-2-0--0--0-0-0-1-0|

  4:06
G|-------------------|
D|-------------------|
A|-------------------|
E|-0-0-1-2-0--0--0-0-|

  4:09
G|-------|
D|-------| x4
A|-------|
E|-0-0-0-|

  4:11
G|---------------------------|
D|---------------------------|
A|-------------------2\1-----|
E|-0--0-0-0--0-0-3\2-----3\2-|

  4:14
G|-------|
D|-------| x4
A|-------|
E|-0-0-0-|

  4:17
G|---------------------------|
D|---------------------------|
A|-------------------2\1-----|
E|-1--1-1-1--1-1-3\2-----3\2-|

  4:19
G|-------|
D|-------| x6
A|-------|
E|-0-0-0-|

  4:23
G|-------|
D|-------| x2
A|-------|
E|-1-1-1-|

  4:25
G|-------|
D|-------| x6
A|-------|
E|-0-0-0-|

  4:28
G|-----------|
D|-----------|
A|-----------|
E|-0-1-0-0-1-|

  4:29
G|-------|
D|-------| x6
A|-------|
E|-0-0-0-|

  4:33
G|--------------|
D|--------------|
A|--------------|
E|-0-1-0-0-1--0-|

  4:39
G|-----------|
D|-----------| x2
A|-----------|
E|-0-1-0-0-1-|

Verse 3
  4:44
G|------------|
D|------------|
A|------------|
E|-0-0--0-0-0-|

  4:45
G|-------------------|
D|-------------------| x2
A|-------------------|
E|-0-0-1-2-0--0--0-0-|

  4:50
G|------------------------|
D|------------------------|
A|------------------------|
E|-0-0-1-2-3--3--3-3-0-1-0|

  4:58
G|---------------------------|---------------------------------|
D|---------------------------|---------------------------------|
A|-------------------2\1-----|---------------------2-1-0-------|
E|-0--0-0-0--0-0-3\2-----3\2-|-1--1-1-1--1-1-3-2-0-------3-2-0-|

Chorus
  5:03
G|---------------------------|---------------------------|
D|---------------------------|---------------------------| x2
A|-------------------2\1-----|-------------------2\1-----|
E|-0--0-0-0--0-0-3\2-----3\2-|-1--1-1-1--1-1-3\2-----3\2-|

  5:14
G|---------------------------|
D|---------------------------| x10
A|-------------------2\1-----|
E|-0--0-0-0--0-0-3\2-----3\2-|

  5:39
G|-----------|
D|-----------|
A|-----------|
E|-0-0-0-0-0-|

Legend
------
| / = slide up
| \ = slide down





Comments


Popular Metallica tabs & chords
Am I Evil 2 Bass Tabs
Attitude Bass Tabs
Battery Bass Tabs
Hit The Lights Drum Tabs
Carpe Diem Baby Tabs
Fight Fire With Fire 1 Tabs
For Whom The Bell Tolls 4 Tabs
No Leaf Clover Tabs
So What Tabs
Wherever I May Roam 1 Tabs


Song lyrics



↑ Back to top | Tablatures and chords are parodies/interpretations of the original songs. You may use it for private study, scholarship, research or language learning purposes only
© 2014 AZChords.com Contact us | Privacy policy | DMCA | Add/correct tabs | Request tabs | Top 50 tabs