» » »

Harvester Of Sorrow Tabs (ver.1)

Artists:  A B C D E F G H I J K L M N O P Q R S T U V W X Y Z # 

Harvester Of Sorrow Tabs (ver.1)

Metallica
Rating:
0/5 (0 votes)

Tabs too difficult? Try these video lessons and learn fast.
                
Metallica
Harvsetor of Sorrow solo off of the ...And Justice For All album
E-----------------------------------------------------
B----15b---15b---15b---15b---17b--15b---15b-----------
G--------------------------------------------14-------
D-----------------------------------------------------
A-----------------------------------------------------
E-----------------------------------------------------

E--17b---17b-15p14---14--------------------------------
B------------------17---17p15-17-15p14s12-14p12s10-----
G------------------------------------------------------
D------------------------------------------------------
A------------------------------------------------------
E------------------------------------------------------

E------------------------------------------------------
B--12bp10-12bp10-12bp10-12bp10-12b---------------------
G--------------------------------------12---14---------
D------------------------------------------------------
A------------------------------------------------------
E------------------------------------------------------

E------------------------------------------------------
B------------------------------------------------------
G---11h12p11-------------------------------------------
D----------------------------/14-----------------------
A-------------14------14h15----------------------------
E------------------------------------------------------

E----------------14-15s19---------17--15---15h17p15p14-
B--------14-15-17--------------------------------------
G---14h16----------------------------------------------
D-14---------------------------------------------------
A------------------------------------------------------
E------------------------------------------------------

E--14h15p14--------------------------------------------
B-----------15--17-----------(17)----------------------
G------------------------------------------------------
D------------------------------------------------------
A------------------------------------------------------
E------------------------------------------------------
            
Tabs too difficult? Try these video lessons and learn fast.


comments powered by Disqus
↑ Back to top | Tablatures and chords are parodies/interpretations of the original songs. You may use it for private study, scholarship, research or language learning purposes only