» » »

Frantic Bass tabs (ver.3)

Artists:  A B C D E F G H I J K L M N O P Q R S T U V W X Y Z # 

Frantic Bass tabs (ver.3)

Metallica
Rating:
0/5 (0 votes)

Hard to play? Try these video lessons and learn fast.
                Frantic
By Metallica
Tuning: 5:B-A 2:D-C
        4:E-C 1:G-F 
        3:A-G  
I transcribed this from Metallica "St Anger" bass tab by Cherry 
Lane Music Company.
Intro  
F|--------|--------------|---------------|----------------|
C|--------|--------------|---------------|----------------|
G|--Rest--|--------------|---------------|----------------|
C|-4 times|---------0----|----------0----|----------0-----|
A|--------|--------------|---------------|----------------|

|------------------|---------------|----------------|
|------------------|---------------|----------------|
|------------------|---------------|----------------|
|-------------0----|---------0-----|----------0-----|
|------------------|---------------|----------------|

|-----------------|-------------------|
|-----------------|-------------------|
|-----------------|-------------------|
|------------0----|--------------0----|
|-----------------|-------------------|

|-----------------------------|----------------------------|
|-----------------------------|----------------------------|
|-----------------------------|----------------------------|
|--6--3--0-0-0-0-5-------0-0--|--6--3--0-0-0-0-5------0-0--|
|-----------------------------|----------------------------|

|-----------------------------|----------------------------|
|-----------------------------|----------------------------|
|-----------------------------|----------------------------|
|---6--3--0-0-0-0-5-------0-0-|--6--3--0-0-0-0-5------0-0--|
|-----------------------------|----------------------------|
                                                          4 Times
|--------------------------------|--------------------------------|
|*-------------------------------|-------------------------------*|
|--------------------------------|--------------------------------|
|*--6--3--0-0-0-0-5--0-0-0-0-0-0-|--6--3--0-0-0-0-5--0-0-0-0-0-0-*|
|--------------------------------|--------------------------------|
                                    |fig 1
|---------------------|-------------|--------------------------|
|---------------------|-------------|*-------------------------|
|---------------------|----Rest-----|--------------------------|
|---6-----------------|--3 Times----|*--6--3--0--5------5---5--|
|---------------------|-------------|--------------------------|

|------------------------|------------------------|
|------------------------|------------------------|
|------------------------|------------------------|
|--6--3--0--5-----5---5--|--6--3--0--5-----5---5--|
|------------------------|------------------------|
         4 times   end fig 1|fig 2             end fig 2|
|---------------------------|---------------------------|
|--------------------------*|---------------------------|
|---------------------------|---------------------------|
|--6--3--0--0--0--0--0--0--*|---6--3--0--0--0--0--0--0--|
|---------------------------|---------------------------|
    Verse
   If I could my...                                 4 times
|---|---------------------------|---------------------------|
|*--|*--------------------------|--------------------------*|
|---|---------------------------|---------------------------|
|*--|*--6--3--0--0--0--0--0--0--|--6--3--0--0--0--0--0--0--*|
|---|---------------------------|---------------------------|
                      4 times|Could I   have  my...
|----------------------------|------------------------|
|*-------------------------*-|------------------------|
|----------------------------|------------------------|
|*--3--3--3--2--2--2--2--2-*-|--fig 2  3 times--------|
|----------------------------|------------------------|
                                                         You
|------------------------|-----------------|-----------------|
|------------------------|-----------------|-----------------|
|------------------------|-----------------|-----------------|
|--6--3--0--0--0--0--5---|--6--------------|-----------------|
|------------------------|-----------------|-----------------|
 live  it or...                              [You
|------------------------|------------------------|
|------------------------|------------------------|
|------------------------|------------------------|
|-6--3--0--5------5---5--|-6--3--0--5------5---5--|
|------------------------|------------------------|
 live it or lie  it!                       My 
|--------------------|------------------------|
|--------------------|------------------------|
|--------------------|------------------------|
|----6---------------|------------------------|
|--------------------|------------------------|
fig 3
life  -   style
|------------------------|----------------------------------|
|------------------------|----------------------------------|
|------------------------|----------------------------------|
|-0-0-0-0-0-0-0-0--------|-----0--0--0--0--0--0--0--0-------|
|------------------------|----------------------------------|
                                                   end fig 3
|-------------------------------|---------------------------|
|-------------------------------|---------------------------|
|-------------------------------|---------------------------|
|-----0--0--0--0--0--0--0--0----|----0-0-0-0-0-0-0-0--------|
|-------------------------------|---------------------------|
w/fig 4                  1.Keep        search  -ing __...
                       2.Keep   on   search - ing _... end fig 4  
|-----------------------|-----------------------------|
|*----------------------|----------------------------*|4 Times
|-----------------------|-----------------------------|
|*--6--0--5--5--------5-|--6--3--5--5--5--5/10-------*|
|-----------------------|-----------------------------|
w/fig 5
Fran   -   tic        tick,...
|----------------------------------|-----------------------------|
|*---------------------------------|-----------------------------|
|----------------------------------|-----------------------------|
|*----0---0--0--0---0---0----------|---0---0--0--0---0---0-------|
|----------------------------------|-----------------------------|
                                 _________________________________
                                 |1            2 times  end fig 5
|--------------------------------|------------------------------|
|--------------------------------|-----------------------------*|
|--------------------------------|------------------------------|
|---0---0--0--0---0---0----------|-----3------------5----------*|
|--------------------------------|------------------------------|
______________________________  _____________________
                              ||2 tick   tick   tick  tock!
|---------|-------|go up to    |----------------------------|
|---------|------*|begining    |----------------------------|
|--fig 1--|-------|of verse    |----------------------------|
|-2 times-|------*|and repeat  |----3-----------5-----------|
|---------|-------|            |----------------------------|
Interlude
|---------------------|--------------|
|---------------------|--------------|
|---------------------|-----Rest-----|
|----0----------------|----3 times---|
|---------------------|--------------|
                                               4 times
|---------------------------|-------------------------|
|*--------------------------|------------------------*|
|----------------5-------5--|---------------3--5--5---|
|*--0--0-----0--------------|--0------0--0-----------*|
|---------------------------|-------------------------|
Bridge
w/fig 6                                                6 times  end fig 6
|----------------------------------|----------------------------------|
|*---------------------------------|---------------------------------*|
|----------------------------------|----------------------------------|
|*-6-0-3-0-0-0-0-0-5-0-0-0-0-0-0-0-|-6-0-3-0-0-0-0-0-5-0-0-0-0-0-0-0-*|
|----------------------------------|----------------------------------|
w/fig 3  3 times
w/fig 4  4 times
w/fig 5  2 times
outro                     4 times
|-----------------|----------------|----------------------|
|*----------------|---------------*|*---------------------|
|-----------------|----------------|----------------------|
|*--0--0----------|-0--0----------*|*-0-------------------|
|-----------------|----------------|-----3-3---3-3-1-3--3-|
                                                           3 times
|--------------------|---------------------|-----------------------|
|--------------------|---------------------|----------------------*|
|--------------------|---------------------|-----------------------|
|-0------------------|-0-------------------|-0---------------5----*|
|---3-3----1-3-1-3-3-|---3-3---3-3-1-3--3--|---3-3---1-3-1-3---3---|

|-------------|
|-------------|
|-------------|
|-------------|
|-3-----------|
            
Hard to play? Try these video lessons and learn fast. | Correct




comments powered by Disqus
↑ Back to top | Tablatures and chords are parodies/interpretations of the original songs. You may use it for private study, scholarship, research or language learning purposes only