>
 >
Frantic 2

Frantic 2 Bass Tabs

Metallica - Frantic 2 chords, tabs, tablatures, lyrics

Guitar lessons | Add/correct | Request | Top 50 tabs Artists:  A B C D E F G H I J K L M N O P Q R S T U V W X Y Z 0-9

Frantic 2 Bass Tabs – Metallica

CD, Sheet music, Poster

Do you like Frantic 2? Share with your friends now
Bass TabsBass Tabs v2Bass Tabs v3ChordsDrum TabsTabsTabs v2Tabs v3Tabs v4Tabs v5Tabs v6Ukulele
Band: Metallica
Bassist: Bob Rock
Tuning: Drop C

Note:
I made this tab based on the bass master track of the song, so you can be
completely sure that this tab is 100% correct. 

You can hear the bass master track here:

The time marked in the tab is based on the song included on St. Anger,
not on the master track.

Intro

  0:07
F|--------------------------|
C|--------------------------|
G|--------------------------|
C|-0--0--0--0--0-6\-0--0--0-|

  0:17
F|--------|
C|--------|
G|--------|
C|-6-3-5/-|

  0:19
F|--------|
C|--------| x3
G|--------|
C|-6-3-5\-|

  0:23
F|------------|
C|------------| x2
G|------------|
C|-6-3--3-5-0-|

  0:26
F|--------------|
C|--------------|
G|--------------|
C|-6-3--3-5-0-0-|

  0:28
F|------------|
C|------------| x5
G|------------|
C|-6-3--3-5-0-|

  0:35
F|---|
C|---|
G|---|
C|-5-|

  0:41
F|-------------|-------------|-------------|-------------------|
C|-------------|-------------|-------------|-------------------| x4
G|-------------|-------------|-------------|-------------------|
C|-6-3-0-5-5-5-|-6-3-0-5-5-5-|-6-3-0-5-5-5-|-6-3-0-0-0-0-0-0-0-|

Verse 1
  1:05
F|------------|
C|------------|
G|------------|
C|-6\-0-x-x-x-|

  1:06
F|------------|
C|------------| x6
G|------------|
C|-5-6\-0-x-x-|

  1:15
F|----------------|
C|----------------|
G|----------------|
C|-5-6\-0-x-x-x-x-|

  1:17
F|-----------------|
C|-----------------| x3
G|-----------------|
C|-3-3-3-3-2-2-2-2-|

  1:21
F|----------------|
C|----------------|
G|----------------|
C|-3-3-3-3-2-2-2/-|

  1:23
F|------------|
C|------------| x4
G|------------|
C|-5-6\-0-0-0-|

  1:29
F|---|
C|---|
G|---|
C|-0-|

  1:32
F|-------------|---------------|
C|-------------|---------------|
G|-------------|---------------|
C|-6-3-0-5-5-5-|-6-3-0-5-5\--0-|

  1:37
F|------------|
C|------------| x4
G|------------|
C|-0-00000000-|

Pre-chorus
  1:44
F|-------------|-------------|
C|-------------|---------5---| x8
G|-------------|-------------|
C|-6-3-0-5-x-x-|-6-3-0-5---x-|

Chorus
  2:07
F|--------|--------|-----------------|
C|--------|--------|-----------------| x2
G|--------|--------|-----------------|
C|-000000-|-000000-|-000000-0-0-0-00-|

  2:19
F|-------------|-------------|-------------|-------------------|
C|-------------|-------------|-------------|-------------------|
G|-------------|-------------|-------------|-------------------|
C|-6-3-0-5-5-5-|-6-3-0-5-5-5-|-6-3-0-5-5-5-|-6-3-0-0-0-0-0-0-0-|

  2:25
F|-------------|-------------|-------------|-----------------|
C|-------------|-------------|-------------|-----------------|
G|-------------|-------------|-------------|-----------------|
C|-6-3-0-5-5-5-|-6-3-0-5-5-5-|-6-3-0-5-5-5-|-6-3-0-0-0-0-0-0-|

Verse 2
  2:31
F|--------------|------------|--------------|--------------|
C|--------------|------------|--------------|--------------|
G|--------------|------------|--------------|--------------|
C|-5-6\-0-x-x-x-|-5-6\-0-x-x-|-5-6\-0-x-x-x-|-5-6\-0-x-0-0-|
 |
F|------------|------------|------------|------------|
C|------------|------------|------------|------------|
G|------------|------------|------------|------------|
C|-5-6\-0-x-0-|-5-6\-0-x-x-|-5-6\-0-x-x-|-5-6\-0-0-0-|

  2:43
F|-----------------|
C|-----------------| x4
G|-----------------|
C|-3-3-3-3-2-2-2-2-|

  2:49
F|------------|
C|------------| x4
G|------------|
C|-5-6\-0-0-0-|

  2:55
F|---|
C|---|
G|---|
C|-0-|

  2:58
F|-------------|-----------------|
C|-------------|-----------------|
G|-------------|-----------------|
C|-6-3-0-5-5-5-|-6-3-0-5-5-5-5-0-|

  3:04
F|-----------|
C|-----------| x4
G|-----------|
C|-000000000-|

Pre-chorus
  3:10
F|-------------|-------------|
C|-------------|---------5---| x8
G|-------------|-------------|
C|-6-3-0-5-x-x-|-6-3-0-5---x-|

Chorus
  3:33
F|--------|--------|-----------------|
C|--------|--------|-----------------| x2
G|--------|--------|-----------------|
C|-000000-|-000000-|-000000-0-0-0-00-|

  3:45
F|---|
C|---|
G|---|
C|-0-|

Interlude
  3:51
F|-------------------------|
C|-------------------------| x4
G|--------5---3------3h5-5-|
C|-0-0--x---x----x-x-------|

  4:03
F|-----------------|
C|-----------------| x11
G|-----------------|
C|-6-3-0-0-5-0-0-0-|

  4:19
F|-----------|
C|-----------|
G|-----------|
C|-6-3-0-0-x-|

  4:22
F|-----------|
C|-----------| x12
G|-----------|
C|-000000000-|

Pre-chorus
  4:39
F|-------------|-------------|
C|-------------|---------5---| x8
G|-------------|-------------|
C|-6-3-0-5-x-x-|-6-3-0-5---x-|

Chorus
  5:03
F|--------|--------|-----------------|
C|--------|--------|-----------------|
G|--------|--------|-----------------|
C|-000000-|-000000-|-000000-0-0-0-00-|
 |
F|--------|--------|----------------|
C|--------|--------|----------------|
G|--------|--------|----------------|
C|-000000-|-000000-|-000000-0-0-0-0-|

Outro
  5:15  
F|-----|
C|-----| x9
G|-----|
C|-0-0-|

  5:27
F|--------------------------------------|
C|--------------------------------------| x2
G|--------------------------------------|
C|-0-0000-0-0-00-0-0-0-00-0-0-00-000060-|
 |
F|------------------------------------|
C|------------------------------------|
G|------------------------------------|
C|-0-0000-0-0-00-0-0-0-00-0-0-00-0050-|

Legend
------
| / = slide up
| \ = slide down
| h = hammer-on
| x = Mute note





Comments


Popular Metallica tabs & chords
Bass Bass Tabs
For Whom The Bell Tolls Drum Tabs
Battery100 Tabs
Broken Beat And Scarred Tabs
Mama Said 2 Tabs
Motorbreath 2 Tabs
Off To Never Riffs Tabs
Poor Twisted Me Tabs
Ride The Lightning With Tabs
Seek And Destroy Tabs


Song lyrics



↑ Back to top | Tablatures and chords are parodies/interpretations of the original songs. You may use it for private study, scholarship, research or language learning purposes only
© 2014 AZChords.com Contact us | Privacy policy | DMCA | Add/correct tabs | Request tabs | Top 50 tabs