» » »

Death Is Not The End Tabs (ver.2)

Artists:  A B C D E F G H I J K L M N O P Q R S T U V W X Y Z # 

Death Is Not The End Tabs (ver.2)

Metallica
Rating:
0/5 (0 votes)

Hard to play? Try these video lessons and learn fast.
                (Intro)
okay this is only a couple of riffs from the song but oh well. ill try to get the full 
down some other time.

Band: Metallica

Guitar 1: Kirk Hammett (DADGBE)
Guitar 2: James Hetfield (DADGBE)

riff 1
Guitar 1
|---------------------------------------------------|
|---------------------------------------------------|
|---------------------------------------------------|
|--------------------13--12--15--12-12-10-12--------|
|-1--0--0-3--3--0-----------------------------------|
|-1--0--0-3--3--0-----------------------------------|
|
|Guitar 2
|---------------------------------------------------|
|---------------------------------------------------|
|---------------------------------------------------|
|---------------------------------------------------|
|-1--0--0-3--3--0-----------------------------------|
|-1--0--0-3--3--0-----------------------------------|


riff 2
guitar 1
|----------------------------------------------|
|----------------------------------------------|
|----------------------------------------------|
|----------------------------------------------|
|-------------------0-3-2-1--------------------|
|-2--0-1-2-2--0-1-2----------------------------|
|
|guitar 2
|----------------------------------------------|
|----------------------------------------------|
|----------------------------------------------|
|----------------------------------------------|
|-------------------0-3-2-1--------------------|
|-2--0-1-2-2--0-1-2----------------------------|


i think there is one other riff but i dont really remember how it sounds.
i think it is similar to riff 1
            
Hard to play? Try these video lessons and learn fast. | Correct




comments powered by Disqus
↑ Back to top | Tablatures and chords are parodies/interpretations of the original songs. You may use it for private study, scholarship, research or language learning purposes only