>
 >
Death Is Not The End

Death Is Not The End Bass Tabs

Metallica - Death Is Not The End chords, tabs, tablatures, lyrics

Guitar lessons | Add/correct | Request | Top 50 tabs Artists:  A B C D E F G H I J K L M N O P Q R S T U V W X Y Z 0-9

Death Is Not The End Bass Tabs – Metallica

CD, Sheet music, Poster

Do you like Death Is Not The End? Share with your friends now
Bass TabsTabs
-------------------------------------------------------------------------------
		       Metallica - Death Is Not The End
-------------------------------------------------------------------------------


This is pretty accurate, I tabbed it from the Download Festival 2006 live gig.
Credit to the guitar tab version as it helped in a couple of places.
I also grouped the tab up into main sections to save confusion with all the riffs.

Rock on!

Tuning: Drop C# (C#, G#, C#, F#)

Intro

F#|-----------------------------------------------------|
C#|---------------13-13-13-12--12-15-15-15-12--12-10h12-|
G#|-----------------------------------------------------|
C#|-1--0--3-3--0----------------------------------------| x4

F#|---------------------------------|    
C#|---------------------------------|    
G#|---------------------------------|    
C#|-1-1-1-0--0-0h1/3--0-0-0-0-0-0-0-| x4 

F#|-------------------------------|----------|
C#|-------------------------------|----------|
G#|-------------------------------|----------|
C#|-6--5--8-8-5--8--7--10-10-7--0-|-2\0--/-\-| 

F#|---------------------------|
c#|---------------------------|
G#|-------------------0-3-2-1-|
C#|-2--0-1-2-2--5-2-5---------| x8

F#|--------------------------------------------------|
C#|--------------------------------------------------|
G#|--------------------------------------------------|
C#|-0-1-2--2--2--2--2--2--2--0-1-2--2--2--2--2--2--2-|

F#|-----------------------------------------|
C#|-----------------------------------------|
G#|-3-2-------------------------------------|
C#|-----2--2--2--2--2--2--2--0-1-2--2--2--2-|

Verse 1

F#|---------------------------------------------------------|
C#|---------------------------------------4b5r4-------------|
G#|---------------------------------------------4b5r4-------|
C#|-2--4-4--4--4--2--4-4--4--4--2--4-4--4-------------4b5r4-| x4

F#|------------------------|
C#|------------------------|
G#|------------------------|
C#|-3--0-2-3--0-2-3--0-2-3-|

Chorus (Lyrics 1)

F#|-----------------------------------------------------|
C#|-----------------------------------------------------|
G#|-----------------------------------------------------|
C#|-2--0-2-2--\--2--0-2-2--\--2--0-2-2--\--2--0-2-2-/-\-|

F#|-------------------------------|
C#|-------------------------------|
G#|-------------------------3-2-1-|
C#|-2-2-2-0-2-0-2-2-2-0-2-0-------| x4

F#|---------------------------|
c#|---------------------------|
G#|-------------------0-3-2-1-|
C#|-2--0-1-2-2--5-2-5---------| x4

F#|--------------------------------------------------|
C#|--------------------------------------------------|
G#|--------------------------------------------------|
C#|-0-1-2--2--2--2--2--2--2--0-1-2--2--2--2--2--2--2-|

F#|-----------------------------------------|
C#|-----------------------------------------|
G#|-3-2-------------------------------------|
C#|-----2--2--2--2--2--2--2--0-1-2--2--2--2-|

Verse 2

F#|---------------------------------------------------------|
C#|---------------------------------------4b5r4-------------|
G#|---------------------------------------------4b5r4-------|
C#|-2--4-4--4--4--2--4-4--4--4--2--4-4--4-------------4b5r4-| x4

F#|------------------------|
C#|------------------------|
G#|------------------------|
C#|-3--0-2-3--0-2-3--0-2-3-|

F#|-----------------------------------------------------|
C#|-----------------------------------------------------|
G#|-----------------------------------------------------|
C#|-2--0-2-2--\--2--0-2-2--\--2--0-2-2--\--2--0-2-2-/-\-|

F#|-------------------------------|
C#|-------------------------------|
G#|-------------------------3-2-1-|
C#|-2-2-2-0-2-0-2-2-2-0-2-0-------| x4

F#|-------------------------------------------------|
C#|-------------------------------------------------|
G#|---------/7-5-7--3-2-1---------------------------|
C#|-2--0-2-----------------2--0-2--2--0-2-0-2-0-2-0-| x2

Chorus (Lyrics 2)

F#|--------------------------------------|
C#|--------------------------------------|
G#|--------------------------------------|
C#|-2--0-2-2--0-2-2-2--3--0-3-3--0-3-3-3-|

F#|---------------------------------------------|
C#|---------------------------------------------|
G#|-3----3-3----3-3----3------------------------|
C#|----5------5------5---5--0-5-5--0-5--5-5-5-5-| x2

Solo

F#|------------------------|
C#|------------------------|
G#|------/7--7-7-7\--3-2-1-|
C#|-2\0--------------------| x4

F#|----------------------------------------------|
C#|----------------------------------------------|
G#|----------------------------------------3-2-1-|
C#|-2-2-2-0--0-2-2-2-0--0-2-2-2-0--0-2-2-2-------| x2

F#|----------------------------------------------|
C#|----------------------------------------------|
G#|----------------------------------------5-4-3-|
C#|-4-4-4-2--2-4-4-4-2--2-4-4-4-2--2-4-4-4-------| x2

F#|--------------------------------------| 
C#|--------------------------------------| 
G#|--------------------------------------| 
C#|-2--0-2-2--0-2-2-2--3--0-3-3--0-3-3-3-| 

F#|---------------------------------------------|
C#|---------------------------------------------|
G#|-3----3-3----3-3----3------------------------|
C#|----5------5------5---5--0-5-5--0-5--5-5-5-5-| x2

F#|---------------------|
C#|---------------------|
G#|---------------3-2-1-|
C#|-2--0-2-2--0-2-------|

Bridge

F#|---------------------|
C#|---------------------|
G#|-5-FAST--8-7-6-5-6-7-|
C#|---------------------| x2

F#|--------------------------------|
C#|--------------------------------|
G#|-5-FAST--8-7-6-5-6-7--5-4-3-2-3-|
C#|--------------------------------|

F#|--------|-------|
C#|--------|-------|
G#|-5-FAST-|-3-2-1-|
C#|--------|-------| x4

F#|---------------------------------|    
C#|---------------------------------|    
G#|---------------------------------|    
C#|-1-1-1-0--0-0h1/3--0-0-0-0-0-0-0-| x4 

F#|-------------------------------|    
C#|-------------------------------|    
G#|-------------------------------|    
C#|-6-6-6-5--5-5/8-8--5-5-5-5-5-5-|

F#|---------------------------------|    
C#|---------------------------------|    
G#|---------------------------------|    
C#|-8-8-8-7--7-7/10-10--7-7-7-7-7-7-|

F#|-----------------------------------------------------|
C#|---------------13-13-13-12--12-15-15-15-12--12-10h12-|
G#|-----------------------------------------------------|
C#|-1--0--3-3--0----------------------------------------| x4

F#|--------------------------------|
C#|-13-13-13-12--15h17-15h17-------|
G#|--------------------------13p12-|
C#|--------------------------------|

F#|--------------------------------------------------|    
C#|-15-15-15-14--14-17-17-17-14--14-13-14------------|    
G#|--------------------------------------------------|    
C#|----------------------------------------3-2-5-8-7-|

Chorus (Lyrics 2)

F#|--------------------------------------|
C#|--------------------------------------|
G#|--------------------------------------|
C#|-2--0-2-2--0-2-2-2--3--0-3-3--0-3-3-3-|

F#|---------------------------------------------|
C#|---------------------------------------------|
G#|-3----3-3----3-3----3------------------------|
C#|----5------5------5---5--0-5-5--0-5--5-5-5-5-| x2

F#|------| 
C#|------| 
G#|------| 
C#|-2--2-| 

F#|---------------------------|
c#|---------------------------|
G#|-------------------0-3-2-1-|
C#|-2--0-1-2-2--5-2-5---------| x2

Verse 3

F#|----------------------------------------------|
C#|----------------------------------------------|
G#|----------------------------------------3-2-1-|
C#|-2-2-2-0--0-2-2-2-0--0-2-2-2-0--0-2-2-2-------| x2

F#|----------------------------------------------|
C#|----------------------------------------------|
G#|----------------------------------------5-4-3-|
C#|-4-4-4-2--2-4-4-4-2--2-4-4-4-2--2-4-4-4-------| x2

F#|------------------------|
C#|------------------------|
G#|------------------------|
C#|-3--0-2-3--0-2-3--0-2-3-|

Chorus (Lyrics 1)

F#|-----------------------------------------------------|
C#|-----------------------------------------------------|
G#|-----------------------------------------------------|
C#|-2--0-2-2--\--2--0-2-2--\--2--0-2-2--\--2--0-2-2-/-\-|

F#|-------------------------------|
C#|-------------------------------|
G#|-------------------------3-2-1-|
C#|-2-2-2-0-2-0-2-2-2-0-2-0-------| x4

F#|--------------------------------------------------|
C#|--------------------------------------------------|
G#|--------------------------------------------------|
C#|-0-1-2--2--2--2--2--2--2--0-1-2--2--2--2--2--2--2-|

F#|---------------------------|
c#|---------------------------|
G#|-------------------0-3-2-1-|
C#|-2--0-1-2-2--5-2-5---------| x4

Outro

F#|-------------------------------------------------|
C#|--------13-13-13-12--12-15-15-15-12--12-10h12----|
G#|-------------------------------------------------|
C#|-2-FAST----------------------------------------0-|

| /  slide up
| \  slide down
| h  hammer-on
| p  pull-off
| ~  vibrato
| +  harmonic
| x  Mute note
| FAST  Play note fast
===============================================================================





Comments


Popular Metallica tabs & chords
Ain't My Bitch 2 Bass Tabs
Devils Dance 2 Bass Tabs
Mexico City Bass Tabs
Frantic Chords
Am I Evil 3 Tabs
Am I Evil? Tabs
Enter Sandman Intro 1 Tabs
Mercyful Fate Tabs
Phantom Lord 1 Tabs
Sanitarium 1 Tabs


Song lyrics



↑ Back to top | Tablatures and chords are parodies/interpretations of the original songs. You may use it for private study, scholarship, research or language learning purposes only
© 2014 AZChords.com Contact us | Privacy policy | DMCA | Add/correct tabs | Request tabs | Top 50 tabs