» » »

Metallica, Cyanide Tabs (ver.3)

Artists:  A B C D E F G H I J K L M N O P Q R S T U V W X Y Z # 

Cyanide Tabs (ver.3)

Metallica Tabs
Rating:
0/5 (0 votes)
Cyanide lessons Tabs too difficult? Try these video lessons and learn fast
                Cyanide
Metallica
Death Magnetic

Standard Tuning



Riff A (intro)


|-------------------------------------------------------------|
|-------------------------------------------------------------|
|-------------------------------------------------------------|
|--------------3-------3--------3-----------------------------|
|-2--2--2------1-------1--------1-------2--2--2---------------|
|-0--0--0--0-0----0-0-----0-0-----0-0---0--0--0--0-0-0-0-0-0--|
           * *    * *     * *     * *            * * * * * *

(Bass Line)


Riff B (Verse)


|------------------------------------------------------------|
|------------------------------------------------------------|
|------------------------------------------------------------|
|---------------------------12\9---7/9--9--------------------|
|-14-14-14-13-13-13-12-12---10\7---5/7--7--------------------|
|-0--0--0--0--0--0--0--0-------------------------------------|


Riff C


|-----------------------------------------------------------------------|
|-----------------------------------------------------------------------|
|-----------------------------------------------------------------------|
|-----------------------------------------------------------------------|
|----------7-5-----7-5-----7-5-----7-5-----7-5-----7-5------7-5-----7-5-|
|-12\--0-0-----0-0-----0-0-----0-0-----0-0-----0-0------0-0-----0-0-----|


Riff D (Pre-Chorus)


|--------------------------------------------------------------|
|--------------------------------------------------------------|
|--------------------------------------------------------------|
|-5-5-5-5-5-5-5-5-5-5-5-5-5-5-5-5-5-5-5-5-5-5-5-5-5-5-5-5-5-5--|
|-3-3-3-3-3-3-3-3-3-3-3-3-3-3-3-3-3-3-3-3-3-3-3-3-3-3-3-3-3-3--|
|-3-3-3-3-3-3-3-3-3-3-3-3-3-3-3-3-3-3-3-3-3-3-3-3-3-3-3-3-3-3--|

|--------------------------------------------------------------|
|--------------------------------------------------------------|
|--------------------------------------------------------------|
|-8-8-8-8-8-8-8-8-8-8-8-8-8-8-8-8---4---4---7-7----7-----------|
|-6-6-6-6-6-6-6-6-6-6-6-6-6-6-6-6---2---2---5-5----5-----------|
|-6-6-6-6-6-6-6-6-6-6-6-6-6-6-6-6---2---2---5-5----5-----------|

|--------------------------------------------------------------|
|--------------------------------------------------------------|
|--------------------------------------------------------------|
|--------------------------------------------------------------|
|-----7-5-----7-5-----7-5-----7-5------------------------------|
|-0-0-----0-0-----0-0-----0-0----------------------------------|

Riff E


|--------------------------------------------------------|
|--------------------------------------------------------|
|--------------------------------------------------------|
|-8-8-8-8-8-8-8-8-8-8-8-8-8-8-8-8------------------------|
|-7-7-7-7-7-7-7-7-7-7-7-7-7-7-7-7---2-2-2-2--------------|
|-6-6-6-6-6-6-6-6-6-6-6-6-6-6-6-6---0-0-0-0--------------|


Riff F (Chorus)


|--------------------------------------------------------------|
|--------------------------------------------------------------|
|--------------------------------------------------------------|
|--------------------------------------------------------------|
|-2------------------------------------------------------------|
|-0-0-0-0-0-0-0-0-0-0-0-0-0-0-6-3-0-0-0-0-6-7-6h7p6\3-0-0-0-0--|
    * * * * * * * * * * * * *       * * *               * * *

|-------------------------------------------------------------|
|-------------------------------------------------------------|
|-------------------------------------------------------------|
|-------------------------------------------------------------|
|-----4-4b5r4-------------------------------------------------|
|-6-7----------7-6-3-0----------------------------------------|


Riff G (Interlude)


|------------------------------------------------------------|
|------------------------------------------------------------|
|------------------------------------------------------------|
|-------0-3--2-0---------------------------0-----------------|
|--2-2--0-3--2-0--2------------------------0-----------------|
|--0-0------------0---0-0-6-6-0----0-0-4-4-------------------|
        * *  * *      * * * * *    * * * * *

Riff H


|-----------------------------------------------------------|
|-----------------------------------------------------------|
|-----------------------------------------------------------|
|-----------------------------------------4-----------------|
|--4----5---4\------------4-4-4--5---4\---------------------|
|--2----3---2\------------2-2-2--3---2\---------------------|


Riff I


|-----------------------------------------------------|
|-----------------------------------------------------|
|-----------------------------------------------------|
|-----4-------5\--------------------------------------|
|---4------4--4\--4-----------------------------------|
|-2------0--------------------------------------------|


Riff J


|------------------------------------------------------|
|------------------------------------------------------|
|------------------------------------------------------|
|------------------------------------------------------|
|-4-4-4------5------4--5--4-4-4-4-4-4-4----------------|
|-2-2-2--0-0-3-0-0--2--5--4----------------------------|
         * *   * *          * * * * * *

|------------------------------------------------------|
|------------------------------------------------------|
|------------------------------------------------------|
|------------------------------------------------------|
|-4--4-4-4------5------4--5--4-------------------------|
|-4--2-2-2--0-0-3-0-0--2--5--4-------------------------|
            * *   * *


Riff K


|-----------------------------------------------------|
|-----------------------------------------------------|
|-----------------------------------------------------|
|-----------------------------------------------------|
|-4---4---5--4--2--4---------3-3--4--------1-1--2-----|
|-2---2---3--2--0--2-----2-2------2----0-0------0-----|
          *  *  *        * * * *       * * * *  *


Riff L


|-----------------------------------------------------|
|-----------------------------------------------------|
|-----------------------------------------------------|
|-----------------------------------------------------|
|-4\-------------------3-------3-----3-----3----------|
|-2\---------------2-2----2-2----2-2---2-2---2-2------|



Riff M


|--------------------------------------------|
|--------------------------------------------|
|--------------------------------------------|
|-5---------8------4--4---7---7\-------------|
|-3---------6------2--2---5---5\-------------|
|-3---------6------2--2---5---5\-------------|


Riff N (Harmony)

|-------------------------------------------------------------------|
|--------------------------------------8-7--------------------------|
|---------------------------9-7-------------------------------------|
|-----------------9-7-----------------------------------------9-7---|
|------10-9----------------------------------------10-9-------------|
|-0--0-------0--0-----0--0-------0--0--------0--0--------0--0-------|

|-15-14-17-15-19-17-24\--|
|------------------------|
|------------------------|
|------------------------|
|------------------------|
|------------------------|


I'll Tab The Solo Later
And Maybe The Second Guitar For Some Parts Too.
Enjoy Playing!
            

comments powered by Disqus
↑ Back to top | Metallica Tabs for Cyanide. Lyrics for acoustic guitar and electric guitar. Tablatures and chords are parodies/interpretations of the original songs. You may use it for private study, scholarship, research or language learning purposes only