>
 >
Cyanide

Cyanide Guitar Tabs

Metallica - Cyanide chords, tabs, tablatures, lyrics

Guitar lessons | Add/correct | Request | Top 50 tabs Artists:  A B C D E F G H I J K L M N O P Q R S T U V W X Y Z 0-9

Cyanide Guitar Tabs – Metallica

CD, Sheet music, Poster

Do you like Cyanide? Share with your friends now
Bass TabsBass Tabs v2TabsTabs v2Tabs v3
Cyanide by Metallica (The One And Only)

Tuning: Standard (E,A,D,G,B,E)

It's best to use dimebag darrell's custom wah
for this song because that is what kirk used on the new album

To get the sound
use this amp or foot pedal setting:

Gain: 9.3
Bass: 9
Mid: 3.9
Treble: 8.1

That Should Give You The Right Sound

W= wah
X= palm mute
~= hold note
/= slide


|--------------------------------------|
|--------------------------------------|
|--------------------------------------|
|----------8----8----8-----------------|
|-2-2-2----8----8----8----2-2-2--------|
|-0-0-0-00-6-00-6-00-6-00-0-0-0-000000-|
|       xx w xx w xx w xx       xxxxxx
|
|
|--------------------------------------|
|--------------------------------------|
|--------------------------------------|
|----------8----8----8-----------------|
|-2-2-2----8----8----8----2-2-2--------|
|-0-0-0-00-6-00-6-00-6-00-0-0-0-000000-|
        xx w xx w xx w xx       xxxxxx




|--------------------------------------|
|--------------------------------------|
|--------------------------------------|
|----------8----8----8-----------------|
|-2-2-2----8----8----8----2-2-2--------|
|-0-0-0-00-6-00-6-00-6-00-0-0-0-000000-|
|       xx w xx w xx w xx       xxxxxx
|
|
|--------------------------------------|
|--------------------------------------|
|--------------------------------------|
|----------8----8----8-----------------|
|-2-2-2----8----8----8----2-2-2--------|
|-0-0-0-00-6-00-6-00-6-00-0-0-0-000000-|
        xx w xx w xx w xx       xxxxxx




|--------------------------------------|
|--------------------------------------|
|--------------------------------------|
|----------8----8----8-----------------|
|-2-2-2----8----8----8----2-2-2--------|
|-0-0-0-00-6-00-6-00-6-00-0-0-0-000000-|
|       xx w xx w xx w xx       xxxxxx
|
|
|--------------------------------------|
|--------------------------------------|
|--------------------------------------|
|----------8----8----8-----------------|
|-2-2-2----8----8----8----2-2-2--------|
|-0-0-0-00-6-00-6-00-6-00-0-0-0-000000-|
        xx w xx w xx w xx       xxxxxx




|--------------------------------------|
|--------------------------------------|
|--------------------------------------|
|----------8----8----8-----------------|
|-2-2-2----8----8----8----2-2-2--------|
|-0-0-0-00-6-00-6-00-6-00-0-0-0-000000-|
|       xx w xx w xx w xx       xxxxxx
|
|
|--------------------------------------|
|--------------------------------------|
|--------------------------------------|
|----------8----8----8-----------------|
|-2-2-2----8----8----8----2-2-2--------|
|-0-0-0-00-6-00-6-00-6-00-0-0-0-000000-|
        xx w xx w xx w xx       xxxxxx


=============================================
=============================================

 Bass Part
|------------------------------|
|------------------------------|
|------------------------------|
|------------------------------|
|------------------------------|
|------------------------------|
|
|
|
|------------------------------|
|------------------------------|
|------------------------------|
|------------------------------|
|------------------------------|
|------------------------------|





|------------------------------|
|------------------------------|
|------------------------------|
|------------------------------|
|------------------------------|
|------------------------------|
|
|
|
|------------------------------|
|------------------------------|
|------------------------------|
|------------------------------|
|------------------------------|
|------------------------------|





|------------------------------|
|------------------------------|
|------------------------------|
|------------------------------|
|------------------------------|
|------------------------------|
|
|
|
|------------------------------|
|------------------------------|
|------------------------------|
|------------------------------|
|------------------------------|
|------------------------------|





|------------------------------|
|------------------------------|
|------------------------------|
|------------------------------|
|------------------------------|
|------------------------------|
|
|
|
|------------------------------|
|------------------------------|
|------------------------------|
|------------------------------|
|------------------------------|
|------------------------------|






|------------------------------|
|------------------------------|
|------------------------------|
|-9-9-999988887777-12/9-7/9--9-|
|-7-7-777777777777-10/7-5/7--7-|
|-0-0-000000000000-----------0-|
|
|
|
|------------------------------|
|------------------------------|
|------------------------------|
|-9-9-999988887777-12/9-7/9--9-|
|-7-7-777777777777-10/7-5/7--7-|
|-0-0-000000000000-----------0-|





|------------------------------|
|------------------------------|
|------------------------------|
|-9-9-999988887777-12/9-7/9--9-|
|-7-7-777777777777-10/7-5/7--7-|
|-0-0-000000000000-----------0-|
|
|
|
|------------------------------|
|------------------------------|
|------------------------------|
|-9-9-999988887777-12/9-7/9--9-|
|-7-7-777777777777-10/7-5/7--7-|
|-0-0-000000000000-----------0-|




|------------------------------|
|------------------------------|
|------------------------------|
|-9-9-999988887777-12/9-7/9--9-|
|-7-7-777777777777-10/7-5/7--7-|
|-0-0-000000000000-----------0-|
|
|
|
|------------------------------|
|------------------------------|
|------------------------------|
|-9-9-999988887777-12/9-7/9--9-|
|-7-7-777777777777-10/7-5/7--7-|
|-0-0-000000000000-----------0-|




|------------------------------|
|------------------------------|
|------------------------------|
|-9-9-999988887777-12/9-7/9----|
|-7-7-777777777777-10/7-5/7----|
|-0-0-000000000000----------15/|
|
|
|
|------------------------------|
|------------------------------|
|------------------------------|
|-9-9-999988887777-12/9-7/9----|
|-7-7-777777777777-10/7-5/7----|
|-0-0-000000000000----------15/|





|----------||----------||----------||----------|
|----------||----------||----------||----------|
|----------||----------||----------||----------|
|----------||----------||----------||----------|
|------7-5-||------7-5-||------7-5-||------7-5-|
|-0~-0-----||-0~-0-----||-0~-0-----||-0~-0-----|
|
|
|
|----------||----------||----------||----------|
|----------||----------||----------||----------|
|----------||----------||----------||----------|
|----------||----------||----------||----------|
|------7-5-||------7-5-||------7-5-||------7-5-|
|-0~-0-----||-0~-0-----||-0~-0-----||-0~-0-----|





|----------||----------||----------||----------|
|----------||----------||----------||----------|
|----------||----------||----------||----------|
|----------||----------||----------||----------|
|------7-5-||------7-5-||------7-5-||------7-5-|
|-0~-0-----||-0~-0-----||-0~-0-----||-0~-0-----|
|
|
|
|----------||----------||----------||----------|
|----------||----------||----------||----------|
|----------||----------||----------||----------|
|----------||----------||----------||----------|
|------7-5-||------7-5-||------7-5-||------7-5-|
|-0~-0-----||-0~-0-----||-0~-0-----||-0~-0-----|





Verse

|------------------------------|
|------------------------------|
|------------------------------|
|-9-9-999988887777-12/9-7/9--9-|
|-7-7-777777777777-10/7-5/7--7-|
|-0-0-000000000000-----------0-|
|
|
|
|------------------------------|
|------------------------------|
|------------------------------|
|-9-9-999988887777-12/9-7/9--9-|
|-7-7-777777777777-10/7-5/7--7-|
|-0-0-000000000000-----------0-|





|------------------------------|
|------------------------------|
|------------------------------|
|-9-9-999988887777-12/9-7/9--9-|
|-7-7-777777777777-10/7-5/7--7-|
|-0-0-000000000000-----------0-|
|
|
|
|------------------------------|
|------------------------------|
|------------------------------|
|-9-9-999988887777-12/9-7/9--9-|
|-7-7-777777777777-10/7-5/7--7-|
|-0-0-000000000000-----------0-|






|------------------------------|
|------------------------------|
|------------------------------|
|-9-9-999988887777-12/9-7/9--9-|
|-7-7-777777777777-10/7-5/7--7-|
|-0-0-000000000000-----------0-|
|
|
|
|------------------------------|
|------------------------------|
|------------------------------|
|-9-9-999988887777-12/9-7/9--9-|
|-7-7-777777777777-10/7-5/7--7-|
|-0-0-000000000000-----------0-|





|------------------------------|
|------------------------------|
|------------------------------|
|-9-9-999988887777-12/9-7/9--9-|
|-7-7-777777777777-10/7-5/7--7-|
|-0-0-000000000000-----------0-|
|
|
|
|------------------------------|
|------------------------------|
|------------------------------|
|-9-9-999988887777-12/9-7/9--9-|
|-7-7-777777777777-10/7-5/7--7-|
|-0-0-000000000000-----------0-|



 Pre-Chorus
|-----------------------------------|
|-----------------------------------|
|------------------8888888888888888-|
|-5555555555555555-xxxxxxxxxxxxxxxx-|
|-3333333333333333-6666666666666666-|
|-----------------------------------|
|
|
|
|-----------------------------------|
|-----------------------------------|
|------------------8888888888888888-|
|-5555555555555555-xxxxxxxxxxxxxxxx-|
|-3333333333333333-6666666666666666-|
|-----------------------------------|




 
|---------|
|---------|
|---------|
|-4-4-7-7-|
|-2-2-5-5-|
|---------|
|
|
|
|---------|
|---------|
|---------|
|-4-4-7-7-|
|-2-2-5-5-|
|---------|






|----------||----------||----------||----------|
|----------||----------||----------||----------|
|----------||----------||----------||----------|
|----------||----------||----------||----------|
|------7-5-||------7-5-||------7-5-||------7-5-|
|-0~-0-----||-0~-0-----||-0~-0-----||-0~-0-----|
|
|
|
|----------||----------||----------||----------|
|----------||----------||----------||----------|
|----------||----------||----------||----------|
|----------||----------||----------||----------|
|------7-5-||------7-5-||------7-5-||------7-5-|
|-0~-0-----||-0~-0-----||-0~-0-----||-0~-0-----|






|-----------------------------------|
|-----------------------------------|
|------------------8888888888888888-|
|-5555555555555555-xxxxxxxxxxxxxxxx-|
|-3333333333333333-6666666666666666-|
|-----------------------------------|
|
|
|
|-----------------------------------|
|-----------------------------------|
|------------------8888888888888888-|
|-5555555555555555-xxxxxxxxxxxxxxxx-|
|-3333333333333333-6666666666666666-|
|-----------------------------------|




 
|---------|
|---------|
|---------|
|-4-4-7-7-|
|-2-2-5-5-|
|---------|
|
|
|
|---------|
|---------|
|---------|
|-4-4-7-7-|
|-2-2-5-5-|
|---------|






|----------||----------||----------||----------|
|----------||----------||----------||----------|
|----------||----------||----------||----------|
|----------||----------||----------||----------|
|------7-5-||------7-5-||------7-5-||------7-5-|
|-0~-0-----||-0~-0-----||-0~-0-----||-0~-0-----|
|
|
|
|----------||----------||----------||----------|
|----------||----------||----------||----------|
|----------||----------||----------||----------|
|----------||----------||----------||----------|
|------7-5-||------7-5-||------7-5-||------7-5-|
|-0~-0-----||-0~-0-----||-0~-0-----||-0~-0-----|





|------------------|
|------------------|
|------------------|
|------------------|
|------------------|
|-0000000000000000-|




Chorus
|---------------------------------|
|---------------------------------|
|---------------------------------|
|---------------------------------|
|-2---------------------------1---|
|-0-0-0-0-0-0-0-0-0-0-0-0-0-0---3-|
|
|
|
|---------------------------------|
|---------------------------------|
|---------------------------------|
|---------------------------------|
|-2---------------------------1---|
|-0-0-0-0-0-0-0-0-0-0-0-0-0-0---3-|





|--------------------------------------------|
|--------------------------------------------|
|--------------------------------------------|
|--------------------------------------------|
|-2-------1h2p1-----------1h2-4-4(5)-4-2p1-3-|
|-0-0-0-0-------3-0-0-0-0--------------------|
|
|
|
|--------------------------------------------|
|--------------------------------------------|
|--------------------------------------------|
|--------------------------------------------|
|-2-------1h2p1-----------1h2-4-4(5)-4-2p1-3-|
|-0-0-0-0-------3-0-0-0-0--------------------|





|---------------------------------|
|---------------------------------|
|---------------------------------|
|---------------------------------|
|-2---------------------------1---|
|-0-0-0-0-0-0-0-0-0-0-0-0-0-0---3-|
|
|
|
|---------------------------------|
|---------------------------------|
|---------------------------------|
|---------------------------------|
|-2---------------------------1---|
|-0-0-0-0-0-0-0-0-0-0-0-0-0-0---3-|





|--------------------------------------------|
|--------------------------------------------|
|--------------------------------------------|
|--------------------------------------------|
|-2-------1h2p1-----------1h2-4-4(5)-4-2p1-3-|
|-0-0-0-0-------3-0-0-0-0--------------------|
|
|
|
|--------------------------------------------|
|--------------------------------------------|
|--------------------------------------------|
|--------------------------------------------|
|-2-------1h2p1-----------1h2-4-4(5)-4-2p1-3-|
|-0-0-0-0-------3-0-0-0-0--------------------|




 Intro Riff
|-------------------------------|
|-------------------------------|
|-------------------------------|
|----------8----8----8----------|
|-2-2-2----8----8----8----2-2-2-|
|-0-0-0-00-6-00-6-00-6-00-0-0-0-|
|       xx w xx w xx w xx     
|
|
|-------------------------------|
|-------------------------------|
|-------------------------------|
|----------8----8----8----------|
|-2-2-2----8----8----8----2-2-2-|
|-0-0-0-00-6-00-6-00-6-00-0-0-0-|
        xx w xx w xx w xx




 Bass Part
|------------------------------|
|------------------------------|
|------------------------------|
|------------------------------|
|------------------------------|
|------------------------------|
|
|
|
|------------------------------|
|------------------------------|
|------------------------------|
|------------------------------|
|------------------------------|
|------------------------------|




|------------------------------|
|------------------------------|
|------------------------------|
|-9-9-999988887777-12/9-7/9--9-|
|-7-7-777777777777-10/7-5/7--7-|
|-0-0-000000000000-----------0-|
|
|
|
|------------------------------|
|------------------------------|
|------------------------------|
|-9-9-999988887777-12/9-7/9--9-|
|-7-7-777777777777-10/7-5/7--7-|
|-0-0-000000000000-----------0-|





|------------------------------|
|------------------------------|
|------------------------------|
|-9-9-999988887777-12/9-7/9--9-|
|-7-7-777777777777-10/7-5/7--7-|
|-0-0-000000000000-----------0-|
|
|
|
|------------------------------|
|------------------------------|
|------------------------------|
|-9-9-999988887777-12/9-7/9--9-|
|-7-7-777777777777-10/7-5/7--7-|
|-0-0-000000000000-----------0-|






|------------------------------|
|------------------------------|
|------------------------------|
|-9-9-999988887777-12/9-7/9--9-|
|-7-7-777777777777-10/7-5/7--7-|
|-0-0-000000000000-----------0-|
|
|
|
|------------------------------|
|------------------------------|
|------------------------------|
|-9-9-999988887777-12/9-7/9--9-|
|-7-7-777777777777-10/7-5/7--7-|
|-0-0-000000000000-----------0-|





|------------------------------|
|------------------------------|
|------------------------------|
|-9-9-999988887777-12/9-7/9--9-|
|-7-7-777777777777-10/7-5/7--7-|
|-0-0-000000000000-----------0-|
|
|
|
|------------------------------|
|------------------------------|
|------------------------------|
|-9-9-999988887777-12/9-7/9--9-|
|-7-7-777777777777-10/7-5/7--7-|
|-0-0-000000000000-----------0-|



 Pre-Chorus
|-----------------------------------|
|-----------------------------------|
|------------------8888888888888888-|
|-5555555555555555-xxxxxxxxxxxxxxxx-|
|-3333333333333333-6666666666666666-|
|-----------------------------------|
|
|
|
|-----------------------------------|
|-----------------------------------|
|------------------8888888888888888-|
|-5555555555555555-xxxxxxxxxxxxxxxx-|
|-3333333333333333-6666666666666666-|
|-----------------------------------|




 
|---------|
|---------|
|---------|
|-4-4-7-7-|
|-2-2-5-5-|
|---------|
|
|
|
|---------|
|---------|
|---------|
|-4-4-7-7-|
|-2-2-5-5-|
|---------|






|----------||----------||----------||----------|
|----------||----------||----------||----------|
|----------||----------||----------||----------|
|----------||----------||----------||----------|
|------7-5-||------7-5-||------7-5-||------7-5-|
|-0~-0-----||-0~-0-----||-0~-0-----||-0~-0-----|
|
|
|
|----------||----------||----------||----------|
|----------||----------||----------||----------|
|----------||----------||----------||----------|
|----------||----------||----------||----------|
|------7-5-||------7-5-||------7-5-||------7-5-|
|-0~-0-----||-0~-0-----||-0~-0-----||-0~-0-----|






|-----------------------------------|
|-----------------------------------|
|------------------8888888888888888-|
|-5555555555555555-xxxxxxxxxxxxxxxx-|
|-3333333333333333-6666666666666666-|
|-----------------------------------|
|
|
|
|-----------------------------------|
|-----------------------------------|
|------------------8888888888888888-|
|-5555555555555555-xxxxxxxxxxxxxxxx-|
|-3333333333333333-6666666666666666-|
|-----------------------------------|




 
|---------|
|---------|
|---------|
|-4-4-7-7-|
|-2-2-5-5-|
|---------|
|
|
|
|---------|
|---------|
|---------|
|-4-4-7-7-|
|-2-2-5-5-|
|---------|






|----------||----------||----------||----------|
|----------||----------||----------||----------|
|----------||----------||----------||----------|
|----------||----------||----------||----------|
|------7-5-||------7-5-||------7-5-||------7-5-|
|-0~-0-----||-0~-0-----||-0~-0-----||-0~-0-----|
|
|
|
|----------||----------||----------||----------|
|----------||----------||----------||----------|
|----------||----------||----------||----------|
|----------||----------||----------||----------|
|------7-5-||------7-5-||------7-5-||------7-5-|
|-0~-0-----||-0~-0-----||-0~-0-----||-0~-0-----|





|------------------|
|------------------|
|------------------|
|------------------|
|------------------|
|-0000000000000000-|




Chorus
|---------------------------------|
|---------------------------------|
|---------------------------------|
|---------------------------------|
|-2---------------------------1---|
|-0-0-0-0-0-0-0-0-0-0-0-0-0-0---3-|
|
|
|
|---------------------------------|
|---------------------------------|
|---------------------------------|
|---------------------------------|
|-2---------------------------1---|
|-0-0-0-0-0-0-0-0-0-0-0-0-0-0---3-|





|--------------------------------------------|
|--------------------------------------------|
|--------------------------------------------|
|--------------------------------------------|
|-2-------1h2p1-----------1h2-4-4(5)-4-2p1-3-|
|-0-0-0-0-------3-0-0-0-0--------------------|
|
|
|
|--------------------------------------------|
|--------------------------------------------|
|--------------------------------------------|
|--------------------------------------------|
|-2-------1h2p1-----------1h2-4-4(5)-4-2p1-3-|
|-0-0-0-0-------3-0-0-0-0--------------------|





|---------------------------------|
|---------------------------------|
|---------------------------------|
|---------------------------------|
|-2---------------------------1---|
|-0-0-0-0-0-0-0-0-0-0-0-0-0-0---3-|
|
|
|
|---------------------------------|
|---------------------------------|
|---------------------------------|
|---------------------------------|
|-2---------------------------1---|
|-0-0-0-0-0-0-0-0-0-0-0-0-0-0---3-|





|--------------------------------------------|
|--------------------------------------------|
|--------------------------------------------|
|--------------------------------------------|
|-2-------1h2p1-----------1h2-4-4(5)-4-2p1-3-|
|-0-0-0-0-------3-0-0-0-0--------------------|
|
|
|
|--------------------------------------------|
|--------------------------------------------|
|--------------------------------------------|
|--------------------------------------------|
|-2-------1h2p1-----------1h2-4-4(5)-4-2p1-3-|
|-0-0-0-0-------3-0-0-0-0--------------------|




 Intro Riff
|-------------------------------|
|-------------------------------|
|-------------------------------|
|----------8----8----8----------|
|-2-2-2----8----8----8----2-2-2-|
|-0-0-0-00-6-00-6-00-6-00-0-0-0-|
|       xx w xx w xx w xx     
|
|
|-------------------------------|
|-------------------------------|
|-------------------------------|
|----------8----8----8----------|
|-2-2-2----8----8----8----2-2-2-|
|-0-0-0-00-6-00-6-00-6-00-0-0-0-|
        xx w xx w xx w xx




 Bridge
|---------------------------|
|---------------------------|
|---------------------------|
|---------------------------|
|-2--2-3-2-0-2-22222-222202-|
|-0--0-0-0-0-0-00000-000000-|
|
|
|
|---------------------------|
|---------------------------|
|---------------------------|
|---------------------------|
|-2--2-3-2-0-2-22222-222202-|
|-0--0-0-0-0-0-00000-000000-|





|---------------------------|
|---------------------------|
|---------------------------|
|---------------------------|
|-2--2-3-2-0-2-22222-222202-|
|-0--0-0-0-0-0-00000-000000-|
|
|
|
|---------------------------|
|---------------------------|
|---------------------------|
|---------------------------|
|-2--2-3-2-0-2-22222-222202-|
|-0--0-0-0-0-0-00000-000000-|







|-----------------------------|
|-----------------------------|
|-----------------------------|
|-4~-----4~-5~-4h5p4-4~-------|
|-4~-4-4-4~-------------4~~~~-|
|-2~-2-2-2~-------------------|
|    x
|
|
|-----------------------------|
|-----------------------------|
|-----------------------------|
|-4~-----4~-5~-4h5p4-4~-------|
|-4~-4-4-4~-------------4~~~~-|
|-2~-2-2-2~-------------------|
     x






|-----------------------------|
|-----------------------------|
|-------------------------6~~-|
|-4~-----4~-5~-4h5p4-4~--4----|
|-4~-4-4-4~-------------4-----|
|-2~-2-2-2~-------------------|
|    x
|
|
|-----------------------------|
|-----------------------------|
|-------------------------6~~-|
|-4~-----4~-5~-4h5p4h5p4h5----|
|-4~-4-4-4~-------------------|
|-2~-2-2-2~-------------------|
     x






|-----------------------------|
|-----------------------------|
|-----------------------------|
|-4~-----4~-5~-4h5p4-4~-------|
|-4~-4-4-4~-------------4~~~~-|
|-2~-2-2-2~-------------------|
|    x
|
|
|-----------------------------|
|-----------------------------|
|-----------------------------|
|-4~-----4~-5~-4h5p4-4~-------|
|-4~-4-4-4~-------------4~~~~-|
|-2~-2-2-2~-------------------|
     x






|-----------------------------|
|-----------------------------|
|-------------------------6~~-|
|-4~-----4~-5~-4h5p4-4~--4----|
|-4~-4-4-4~-------------4-----|
|-2~-2-2-2~-------------------|
|    x
|
|
|-----------------------------|
|-----------------------------|
|-------------------------6~~-|
|-4~-----4~-5~-4h5p4h5p4h5----|
|-4~-4-4-4~-------------------|
|-2~-2-2-2~-------------------|
     x





 (Clean)
|--------------||--------------||--------------||--------------|
|--------------||--------------||--------------||--------------|
|--------------||--------------||--------------||--------------|
|-----4------5-||-----4------5-||-----4------5-||-----4------5-|
|---4------2---||---4------2---||---4------2---||---4------2---|
|-2-----0~-----||-2-----0~-----||-2-----0~-----||-2-----0~-----|
|
|
|(Distorted)
|--------------||--------------||--------------||--------------|
|--------------||--------------||--------------||--------------|
|--------------||--------------||--------------||--------------| Listen Very Carfully
|--------------||--------------||--------------||--------------| And You Will Be Able To 
|----------7/9-||----------7/9-||----------7/9-||----------7/9-| Hear This Part
|----------5/7-||----------5/7-||----------5/7-||----------5/7-|






 (Clean)
|--------------||--------------||--------------||--------------|
|--------------||--------------||--------------||--------------|
|--------------||--------------||--------------||--------------|
|-----4------5-||-----4------5-||-----4------5-||-----4------5-|
|---4------2---||---4------2---||---4------2---||---4------2---|
|-2-----0~-----||-2-----0~-----||-2-----0~-----||-2-----0~-----|
|
|
|(Distorted)
|--------------||--------------||--------------||--------------|
|--------------||--------------||--------------||--------------|
|--------------||--------------||--------------||--------------|
|--------------||--------------||--------------||--------------|
|----------7/9-||----------7/9-||----------7/9-||----------7/9-|
|----------5/7-||----------5/7-||----------5/7-||----------5/7-|





 (Both Guitars Distorted)
|-----------------------------|
|-----------------------------|
|-----------------------------|
|-4~-----4~-5~-4h5p4-4~-------|
|-4~-4-4-4~-------------4~~~~-|
|-2~-2-2-2~-------------------|
|    x
|
|
|-----------------------------|
|-----------------------------|
|-----------------------------|
|-4~-----4~-5~-4h5p4-4~-------|
|-4~-4-4-4~-------------4~~~~-|
|-2~-2-2-2~-------------------|
     x






|-----------------------------|
|-----------------------------|
|-------------------------6~~-|
|-4~-----4~-5~-4h5p4-4~--4----|
|-4~-4-4-4~-------------4-----|
|-2~-2-2-2~-------------------|
|    x
|
|
|-----------------------------|
|-----------------------------|
|-------------------------6~~-|
|-4~-----4~-5~-4h5p4h5p4h5----|
|-4~-4-4-4~-------------------|
|-2~-2-2-2~-------------------|
     x






|--------------------------------------------------|
|--------------------------------------------------|
|--------------------6~7~6h7p6-4-6~7~6h7p6-4~-6~~~-|
|-4~-----4~-5~-4h5p4-------------------------------|
|-4~-4-4-4~----------------------------------------|
|-2~-2-2-2~----------------------------------------|
|    x
|
|
|--------------------------------------------------|
|--------------------------------------------------|
|--------------------------------------------------|
|-4~-----4~-5~-4h5p4-4~5~4h5p4-2-4~5~4h5p4-2~-4~~~-|
|-4~-4-4-4~----------------------------------------|
|-2~-2-2-2~----------------------------------------|
     x






|--------------------------------------------------|
|--------------------------------------------------|
|--------------------6~7~6h7p6-4-6~7~6h7p6-4~-6~~~~| _______
|-4~-----4~-5~-4h5p4-------------------------------|        \
|-4~-4-4-4~----------------------------------------|         \
|-2~-2-2-2~----------------------------------------|          \
|    x                                                         \___
|             These Two Notes Fade Out As The Guitars Carry ON /
|                                                             /
|--------------------------------------------------|         /
|--------------------------------------------------| _______/
|--------------------------------------------------|
|-4~-----4~-5~-4h5p4-4~5~4h5p4-2-4~5~4h5p4-2~-4~~~~|
|-4~-4-4-4~----------------------------------------|
|-2~-2-2-2~----------------------------------------|
     x







(Clean)
|--------------||--------------||--------------||--------------|
|--------------||--------------||--------------||--------------|
|--------------||--------------||--------------||--------------|
|-----4------5-||-----4------5-||-----4------5-||-----4------5-|
|---4------2---||---4------2---||---4------2---||---4------2---|
|-2-----0~-----||-2-----0~-----||-2-----0~-----||-2-----0~-----|
|
|
|(Distorted)
|--------------||--------------||--------------||--------------|
|--------------||--------------||--------------||--------------|
|--------------||--------------||--------------||--------------|
|--------------||--------------||--------------||--------------|
|----------7/9-||----------7/9-||----------7/9-||----------7/9-|
|----------5/7-||----------5/7-||----------5/7-||----------5/7-|







(Clean)
|--------------||--------------||--------------||--------------|
|--------------||--------------||--------------||--------------|
|--------------||--------------||--------------||--------------|
|-----4------5-||-----4------5-||-----4------5-||-----4------5-|
|---4------2---||---4------2---||---4------2---||---4------2---|
|-2-----0~-----||-2-----0~-----||-2-----0~-----||-2-----0~-----|
|
|
|(Distorted)
|--------------||--------------||--------------||--------------|
|--------------||--------------||--------------||--------------|
|--------------||--------------||--------------||--------------|
|--------------||--------------||--------------||--------------|
|----------7/9-||----------7/9-||----------7/9-||----------7/9-|
|----------5/7-||----------5/7-||----------5/7-||----------5/7-|







Solo
|----------------------------------------------|
|----------------------------------------------|
|-11~~-11-11-11~~------------------------------|
|-----------------9-9b(10)-9(10)rb(9)-7--------|
|---------------------------------------9~~~~~-|
|----------------------------------------------|
| w    w  w  w    w w      w          w
|
|
|-----------------------------|
|-----------------------------|
|-----------------------------|
|-4~-----4~-5~-4h5p4-4~-------|
|-4~-4-4-4~-------------4~~~~-|
|-2~-2-2-2~-------------------|
     x





|--------------------------------|
|--------------------------------|
|-11~~-11-11-11~~-9~b(10)(9)/-2~~|
|--------------------------------|
|--------------------------------|
|--------------------------------|
| w    w  w  w    w           w
|
|
|-----------------------------|
|-----------------------------|
|-----------------------------|
|-4~-----4~-5~-4h5p4-4~-------|
|-4~-4-4-4~-------------4~~~~-|
|-2~-2-2-2~-------------------|
     x





|----------------------------------------------|
|----------------------------------------------|
|-11~~-11-11-11~~------------------------------|
|-----------------9-9b(10)-9(10)rb(9)-7--------|
|---------------------------------------9~~~~~-|
|----------------------------------------------|
| w    w  w  w    w w      w          w
|
|
|-----------------------------|
|-----------------------------|
|-----------------------------|
|-4~-----4~-5~-4h5p4-4~-------|
|-4~-4-4-4~-------------4~~~~-|
|-2~-2-2-2~-------------------|
     x






|----------------------------------|
|----------------------------------|
|-11~~-11-11-11~~-9~9~b(10)(9)/-2~~|
|----------------------------------|
|----------------------------------|
|----------------------------------|
| w    w  w  w    w w           w
|
|
|-----------------------------|
|-----------------------------|
|-----------------------------|
|-4~-----4~-5~-4h5p4-4~-------|
|-4~-4-4-4~-------------4~~~~-|
|-2~-2-2-2~-------------------|
     x





|---------------------------------------------------------|
|-------------------------16b(17)-16b(17)-16b(17)-16b(17)-|
|-11~~-11-11-11~~/14~/16~-16b(17)-16b(17)-16b(17)-16b(17)-|
|---------------------------------------------------------|
|---------------------------------------------------------|
|---------------------------------------------------------|
| w    w  w  w    w   w   w       w       w       w
|
|
|-----------------------------|
|-----------------------------|
|-----------------------------|
|-4~-----4~-5~-4h5p4-4~-------|
|-4~-4-4-4~-------------4~~~~-|
|-2~-2-2-2~-------------------|
     x






|---------------------------------12-14-17-12----12----------------------------|
|---------------------10-12-13-14-------------14----14-13-14-13-12-13-12----16b|
|-14-14b(15)(14)-11~~----------------------------------------------------14-16b|
|------------------------------------------------------------------------------|
|------------------------------------------------------------------------------|
|------------------------------------------------------------------------------|
| w              w    w           w           w        w        w           w
|
|
|-----------------------------|
|-----------------------------|
|-----------------------------|
|-4~-----4~-5~-4h5p4-4~-------|
|-4~-4-4-4~-------------4~~~~-|
|-2~-2-2-2~-------------------|
     x






|------------------------------------14-14-14--------------------------------------------|
|-16b------------------------17b(19)~~~~~~~~~~rb(17)-17p16p14--------14-14---------------|
|-16b-16p14----14-16-16b(17)----------------------------------16b(18)-----16p14--16b(18)-|
|-----------16-----------------------------------------------------------------16--------|
|----------------------------------------------------------------------------------------|
|----------------------------------------------------------------------------------------|
|
|
|
|-----------------------------|
|-----------------------------|
|-----------------------------|
|-4~-----4~-5~-4h5p4-4~-------|
|-4~-4-4-4~-------------4~~~~-|
|-2~-2-2-2~-------------------|
     x







|-14-16-17-16-12-14-12---------------------------------------------------------------------|
|----------------------14h17p14-14-13-12-10------------------------------------------------|
|-------------------------------------------11-14-16-14-16p14-16b(18)-16p14----------------|
|---------------------------------------------------------------------------16~~~~~~~~~~~~-|
|------------------------------------------------------------------------------------------|
|------------------------------------------------------------------------------------------|
|
|
|
|------------------------------|
|------------------------------|
|------------------------------|
|-4~-----4~-5~-4h5p4-4-7-4~~~~-|
|-4~-4-4-4~----------4-7-4~~~~-|
|-2~-2-2-2~----------2-5-2~~~~-|
     x

I will add the rest as i figure it out





Comments


Popular Metallica tabs & chords
Am I Evil? 2 Bass Tabs
Battery 2 Bass Tabs
Fight Fire With Fire Bass Tabs
Broken Beat And Scarred 1 Tabs
Fade To Black Live Intro Tabs
For Whom The Bell Tolls Tabs
Holier Than Thou 1 Tabs
Loverman 1 Tabs
Of Wolf And Man 1 Tabs
Through The Never 1 Tabs


Song lyrics



↑ Back to top | Tablatures and chords are parodies/interpretations of the original songs. You may use it for private study, scholarship, research or language learning purposes only
© 2014 AZChords.com Contact us | Privacy policy | DMCA | Add/correct tabs | Request tabs | Top 50 tabs