>
 >
Better Than You 2

Better Than You 2 Guitar Tabs

Metallica - Better Than You 2 chords, tabs, tablatures, lyrics

Guitar lessons | Add/correct | Request | Top 50 tabs Artists:  A B C D E F G H I J K L M N O P Q R S T U V W X Y Z 0-9

Better Than You 2 Guitar Tabs – Metallica

CD, Sheet music, Poster

Do you like Better Than You 2? Share with your friends now
Bass TabsTabsTabs v2Tabs v3
Better Than You - Metallica
Tune all guitars down 1/2 stepDrum intro

1)
eb------------------------
Bb------------------------
Gb------------------------
Db------------------------
Ab--5-6-7-5--2--5-6-7-5--2
Eb--3-4-5-3--0--3-4-5-3--


02)
eb--------------------------------------------------------
Bb--------------------------------------------------------
Gb--------------------------------------------------------
Db--------------------------------------------------------
Ab--5-6-7-5------2-----2-----2--5-6-7-5------2-----2-----2
Eb--3-4-5-3--0-0-0-0-0-0-0-0-0--3-4-5-3--0-0-0-0-0-0-0-0-0
            pm..   ...   ...             ...   ...   ...

3a)
eb--------------------------------------------
Bb--------------------------------------------
Gb--------------------------------------------
Db--------------------------------------------
Ab--5-6-7-5-5-5-7-7-7-5-5-5------2-----2-----2  2 times
Eb--3-4-5-3-3-3-5-5-5-3-3-3--0-0-0-0-0-0-0-0-0
                             pm..   ...   ...
"I look at you look at me"

3b)
eb-------------------------------------------------------
Bb-------------------------------------------------------
Gb-------------------------------------------------------
Db--------------------5-5-5-7-7-7-------------10-10-10-12
Ab--5-6-7-5-5-5-7-7-7-3-3-3-5-5-5-5-5-5-7-7-7-8--8--8--10
Eb--3-4-5-3-3-3-5-5-5-------------3-3-3-5-5-5------------
"Holding the lion's share, holding the key"

4)
eb-------------------------------    ------------------------------
Bb-------------------------------    ------------------------------
Gb---------------4p2-------------    --------------6p4-------------
Db--4-4-4-4-4-4------4--4p2---2-3 tw -4/6-4/6-4/6------4--6p4---4-5
Ab--4-4-4-4-4-4-------------2-2-3 ic -4/6-4/6-4/6-------------4-4-5
Eb--0h2-0h2-0h2---------------0-1 e  -2/4-2/4-2/4---------------2-3
Chorus"Oh, cannot stop this train from rolling"





Comments


Popular Metallica tabs & chords
Anesthesia 2 Bass Tabs
Bad Seed 2 Bass Tabs
The Call Of The Ktulu 2 Bass Tabs
Creeping Death Drum Tabs
Disposable Heroes Drum Tabs
Devil's Dance 2 Tabs
Live Shit Riffs 1 Tabs
No Remorse 2 Tabs
Of Wolf And Man 1 Tabs
The Memory Remains 1 Tabs


Song lyrics



↑ Back to top | Tablatures and chords are parodies/interpretations of the original songs. You may use it for private study, scholarship, research or language learning purposes only
© 2014 AZChords.com Contact us | Privacy policy | DMCA | Add/correct tabs | Request tabs | Top 50 tabs