» » »

Metallica, Better Than You Tabs (ver.2)

Artists:  A B C D E F G H I J K L M N O P Q R S T U V W X Y Z # 

Better Than You Tabs (ver.2)

Metallica Tabs
 Rating:
4/5 (4 votes)
Better Than You lessons Tabs too difficult? Try these video lessons and learn fast
                Tune all guitars down 1/2 step

Drum intro
1)
Db------------------------
Ab--5-5-7-5--2--5-6-7-5--2
Eb--3-4-5-3--0--3-4-5-3--0

2)
Db--------------------------------------------------------
Ab--5-6-7-5------2-----2-----2--5-6-7-5------2-----2-----2
Eb--3-4-5-3--0-0-0-0-0-0-0-0-0--3-4-5-3--0-0-0-0-0-0-0-0-0
            pm..   ...   ...             ...   ...   ...

3a)
Gb--------------------------------------------
Db--------------------------------------------
Ab--5-6-7-5-5-5-7-7-7-5-5-5------2-----2-----2  2 times
Eb--3-4-5-3-3-3-5-5-5-3-3-3--0-0-0-0-0-0-0-0-0
(timing is messed up)       pm..   ...   ...

3b)
Gb-------------------------------------------------------
Db--------------------5-5-5-7-7-7-------------10-10-10-12
Ab--5-6-7-5-5-5-7-7-7-3-3-3-5-5-5-5-5-5-7-7-7-8--8--8--10
Eb--3-4-5-3-3-3-5-5-5-------------3-3-3-5-5-5
"Holding the lions share, holding the key"

4)
Gb---------------4p2-------------    --------------6p4-------------
Db--2-4-2-4-2-4------4--4p2---2-3 tw -4\6-4-6-4\6------4--6p4---4-5
Ab--2-4-0-4-2-4-------------2-2-3 ic -4\6-2-6-4\6-------------4-4-5
Eb--0h2---2-0h2---------------0-1 e  -2\4---4-2\4---------------2-3
" Oh, cannot stop this train from rolling.":
            
Submit corrections

comments powered by Disqus
↑ Back to top | Metallica Tabs for Better Than You. Lyrics for acoustic guitar and electric guitar. Tablatures and chords are parodies/interpretations of the original songs. You may use it for private study, scholarship, research or language learning purposes only