» » »

Metallica, Attitude Tabs (ver.4)

Artists:  A B C D E F G H I J K L M N O P Q R S T U V W X Y Z # 

Attitude Tabs (ver.4)

Metallica Tabs
Rating:
0/5 (0 votes)
Attitude lessons Tabs too difficult? Try these video lessons and learn fast
                
Tune 1/2 step down
(Eb Ab Db Gb Bb eb)


Intro/Main Riff
----------------

eb|------------------------------------------------------------------------------|
Bb|------------------------------------------------------------------------------|
Gb|---7b9--7-5-7-5---------------------7b9--7-5-7-5----------------------9\------|
Db|----------------7v------5-5-5/7v-----------------7v--7b9--7-5-7-5-----9\------|
Ab|------------------------5-5-5/7v----------------------------------7---7\------|
Eb|---------------------0--3-3-3/5v----------------------------------------------|


Bridge
-------

eb|------------------------------------------------------------------------------|
Bb|------------------------------------------------------------------------------|
Gb|----------------------------------------------------------9\------------------|
Db|------4h5-5--9\-------4h5-5--9\------4h5-5--7---7-7-7-----9\------------------|
Ab|------5---5--7\-------5---5--7\------5---5--7---7-7-7-----7\------------------|
Eb|--0-0-------------0-0------------0-0--------5-0-5-5-5--0----------------------|
     pm.             ...            ...          .        .


Verses
-------

eb|------------------------------------------------------------------------------|
Bb|------------------------------------------------------------------------------|
Gb|------------------------------------------------------------------------------|
Db|--7\5--2--2-------5-5-5/7-----------------------------------------------------|
Ab|--7\5--2--2-------5-5-5/7-----------------------------------------------------|
Eb|--5\3--0--0--0-0--3-3-3/5--0-0------------------------------------------------|
                pm.           ...

Prechorus
----------

The first part of the bar is what James plays, the
second part is what Kirk plays.

eb|----------------------------------|-------------------------------------------|
Bb|----------------------------------|---3-----3-----3-----3---------------------|
Gb|--7-7-7--8-----5------------------|-----0-----0-----0-----0-------------------|
Db|--7-7-7--8-----5------------------|-------5-----5-----5-----5-----------------|
Ab|--5-5-5--6--0--3--3-3-3-3-3-3-----|-------------------------------------------|
Eb|----------------------------------|-------------------------------------------|
                     pm.........

Chorus
-------

eb|------------------------------------------------------------------------------|
Bb|------------------------------------------------------------------------------|
Gb|------------------------------------------------------------------------------|
Db|-7-7-7--8-----5---------------------------------------------------------------|
Ab|-7-7-7--8-----5-5-5-5-5-5-5---------------------------------------------------|
Eb|-5-5-5--6--0--3-3-3-3-3-3-3---------------------------------------------------|
                   pm.........

Peace,
tyler
            
Submit corrections

comments powered by Disqus
↑ Back to top | Metallica Tabs for Attitude. Lyrics for acoustic guitar and electric guitar. Tablatures and chords are parodies/interpretations of the original songs. You may use it for private study, scholarship, research or language learning purposes only