» » »

Attitude Tabs (ver.1)

Artists:  A B C D E F G H I J K L M N O P Q R S T U V W X Y Z # 

Attitude Tabs (ver.1)

Metallica
Rating:
0/5 (0 votes)

Tabs too difficult? Try these video lessons and learn fast.
                e:----------------------------------------------------------------------]
B:----------------------------------------------------------------------]
G:----------------------------------------------------------------------]
D:-5h7bbbbbb9--7-5-7-5----------------------5h7bbbbbb9--7-5-7-5---------]
A:---------------------7~~~~~\----------------------------------7~~~~~\-]
E:----------------------------------------------------------------------]

Gtr 2

e:--------------------------------------]
B:--------------------------------------]
G:--------------------------------------]
D:-------------------------5--5--5-5s7--]
A:-------------------------5--5--5-5s7--]
E:-----------------------0-3--3--3-3s5--]

Intro Part 2

   Gtr 1 Only   Both                                
e:--------------{--------------/
B:--------------5--------------/
G:--------------7bb9-7-5-7-7-9-/
D:-7bb9-7-5-7-5------------7-9-/
A:-------------------------5-7-/
E:-----------------------------/
                              

			x4
e:------------------------------------------------------/-]
B:------------------------------------------------------/-]
G:-----------9\------------9\-----------------------7-9-/-]
D:-----4h5---9\------4h5---9\-----4h5---------------7-9-/-]
A:-----5-----7\------5-----7\-----5-----5----7----5-5-7-/-]
E:-0-0-----0-----0-0-----0----0-0-----0-3--0-5--0-3-----/-]
PM(E only------------------------)

Verse 

e:----------------------------------------]
B:----------------------------------------]
G:----------------------------------------]
D:----------------------------------------]
A:-7s5-2-2---7-7-7-5---7s5-2-2---5-5-5-7--]
E:-5s3-0-0---5-5-5-3---5s3-0-0---3-3-3-5--]

e:------------------------------------------------]
B:------------------------------------------------]
G:------------------------------------------------]
D:------------------------------------------------]
A:-7s5-2-2---7-7-7-5---7s5-2-2---2-2-2-2-2-2-2-2--]
E:-5s3-0-0---5-5-5-3---5s3-0-0---0-0-0-0-0-0-0-0--]
                               PM--------------)
            
Tabs too difficult? Try these video lessons and learn fast.




comments powered by Disqus
↑ Back to top | Tablatures and chords are parodies/interpretations of the original songs. You may use it for private study, scholarship, research or language learning purposes only