>
 >
Attitude

Attitude Bass Tabs

Metallica - Attitude chords, tabs, tablatures, lyrics

Guitar lessons | Add/correct | Request | Top 50 tabs Artists:  A B C D E F G H I J K L M N O P Q R S T U V W X Y Z 0-9

Attitude Bass Tabs – Metallica

CD, Sheet music, Poster

Do you like Attitude? Share with your friends now
Bass TabsChordsTabsTabs v2Tabs v3Tabs v4
Metallica
Attitude
written by Hetfield and Ulrich
as performed on ReLoad


tune all guitars down 1/2 step

|-----------------|-----------------|-----------------|-----------------|
|------REST-------|------REST-------|-----------------|-----------------|
|-----------------|-----------------|-----------------|-----------------|
|-----------------|-----------------|-0-3---3---3---5-|-(5)-------------|


|-----------------|-----------------|-----------------|-----------------|-----------------|
|-----------------|-----------------|-----------------|-----------------|-----------------|
|-----------------|-----------------|-----------------|-----------------|---------------7-|
|-(5)-------------|-(5)-------------|-(5)-------------|-(5)-------------|-(5)\--------0---|



|--------------------|-------------------|-------------------|--------------------|
|o-------------------|-------------------|-------------------|-------------------o|
|o-(7)\------------7-|-(7)\------------7-|-(7)\--------------|-------------5---7-o|
|------0-0-0-0-0-0---|-----0-0-0-0-0-0---|-----0-0-0-0-0-0-3-|-(3)-5-5-0-5--------|


|--------------------|-------------------|-------------------|-------------------|
|o-------------------|-------------------|-------------------|-------------------|
|o-(7)\------------7-|-(7)\------------7-|-(7)\--------------|-------------5---7-|
|------0-0-0-0-0-0---|-----0-0-0-0-0-0---|-----0-0-0-0-0-0-3-|-(3)-5-5-0-5-------|


|-------------------|-------------------|-------------------|-------------------|
|-------------------|-------------------|-------------------|-------------------|
|-(7)\------------7-|-(7)\------------7-|-(7)\--------------|-------------5---7-|
|-----0-0-0-0-0-0---|-----0-0-0-0-0-0---|-----0-0-0-0-0-0-3-|-(3)-5-5-0-5-------|


|-------------------|-----------------|-----------------|-----------------|
|-------------------|-----------------|-----------------|-----------------|
|-(7)---------------|-----------------|-----------------|-----------------|
|-----0-0-0-0-0-0-0-|-0-0-0-0-0-0-0-3-|-3---0---0---0-0-|/5-5-5-3---0-0-3-|


|-----------------|-----------------|-----------------|-----------------|
|-----------------|-----------------|-----------------|-----------------|
|-----------------|-----------------|-----------------|-----------------|
|-3---0---0---0-0-|-3-3-3-5---0-0-3-|-3---0---0---0-0-|/5-5-5-3---0-0-3-|


|-----------------|------------------|-----------------|-----------------|
|-----------------|------------------|-----------------|-----------------|
|-----------------|----7-7-7-7-7-7-7-|-----------------|-----------------|
|-3---0---0---0-0-|(0)-0-0-0-0-0-0-0-|-0-0-0---0---0-0-|-0-0-0-0---0-0-0-|


|-----------------|-----------------|-----------------|-----------------|
|-----------------|-----------------|-----------------|-----------------|
|-----------------|-----------------|-----------------|-----------------|
|-0-0-0---0---0-0-|-0-0-0-0---0-0-0-|-0-0-0---0---0-0-|-0-0-0-0---0-0-0-|


|-----------------|-----------------|-----------------|------------------|
|-----------------|-----------------|-----------------|------------------|
|-----------------|-----------0-3-0-|-5-5-5-6-0-0-3---|(3)-3---3-3-0-3-0-|
|-0-0-0---0---0-0-|-0-0-0-0-0-------|-----------------|------------------|


|-----------------|------------------|-----------------|-----------------|
|-----------------|------------------|-----------------|-----------------|
|-5-5-5-6-0-0-3---|(3)-3---3-3-0-3-0-|-5-5-5-6-0-0-3---|-----------------|
|-----------------|------------------|-----------------|-0-3---3---3---3-|


|-----------------|------------------|-----------------|------------------|
|-----------------|------------------|-----------------|------------------|
|-----------------|------------------|-----------------|------------------|
|-5-5-5-6-0-0-3---|(3)-0-0-0-0-0-3-0-|-5-5-5-6-0-0-3---|(3)-0-0-0-0-0-3-0-|

                                                        1.________________
|-----------------|------------------|-----------------|-----------------|
|-----------------|------------------|-----------------|-----------------|
|-----------------|------------------|-----------------|-----------------|
|-5-5-5-6-0-0-3---|(3)-0-0-0-0-0-3-0-|-5-5-5-6-0-0-3---|-0-3---3---3---5-|

______________________________________________________  2._______________
|-----------------|-----------------|------------------|-----------------|
|-----------------|-----------------|-----------------o|-----------------|
|-----------------|-----------------|---------------7-o|-----------------|
|(5)--------------|(5)--------------|(5)----------0----|-0-3---3---3---5-|


|-----------------|------------------|-----------------|------------------|
|-----------------|------------------|-----------------|------------------|
|-----------------|------------------|-----------------|------------------|
|-5-5-5-6-0-0-3---|(3)-0-0-0-0-0-3-0-|-5-5-5-6-0-0-3---|(3)-0-0-0-0-0-3-0-|


|-----------------|------------------|-----------------|-----------------|
|-----------------|------------------|-----------------|-----------------|
|-----------------|------------------|-----------------|-----------------|
|-5-5-5-6-0-0-3---|(3)-0-0-0-0-0-3-0-|-5-5-5-6-0-0-3---|-0-3---3---3---5-|


|-----------------|-----------------|-----------------||
|-----------------|-----------------|-----------------||
|-----------------|-----------------|---------------7-||
|(5)--------------|(5)--------------|(5)----------0---||


|------------------|------------------|------------------|------------------|
|------------------|------------------|------------------|------------------|
|(7)\------------7-|(7)\------------7-|(7)\--------------|------------5---7-|
|----0-0-0-0-0-0---|----0-0-0-0-0-0---|----0-0-0-0-0-0-3-|(3)-5-5-0-5-------|


|-------------------|-----------------|-------------------|-----------------|
|-------------------|-----------------|-------------------|-----------------|
|-(7)-------7-------|-----7---7-------|-------7---7-------|-----7---7-------|
|-------0-0-7-----0-|-0---7---7-----0-|-(0)---7---7-----0-|-0---7---7-----0-|


|-------------------|-----------------|-------------------|-------------------|
|-------------------|-----------------|-------------------|-------------------|
|-------7---7-------|-----7---7-------|-------7---7-------|-------7---7-------|
|-(0)---7---7-----0-|-0---7---7-----0-|-(0)---7---7-----0-|-(0)---7---7-------|


|-----------------|-------------------|-------------------|-----------------|
|-----------full--|-------------full--|-------------full--|-----------------|
|-7------(7)^-----|-(7)------(7)^-----|-(7)------(7)^---7\|-----------------|
|-0---------------|-(0)---------------|-(0)---------------|-0-3---3---3---5-|


|-------------------|-----------------|-----------------|-----------------|
|-------------------|-----------------|-----------------|-----------------|
|-------------------|-----------------|-1---------------|-----------------|
|-(5)-5-5-5-5-5-5-5-|-5-5-5-5-5-0-3-0-|---3-0---0---0-0-|-0-0-0-0---0-3-0-|


|-----------------|-----------------|-----------------|-----------------|
|-----------------|-----------------|-----------------|-----------------|
|-1---------------|-----------------|-1---------------|-----------------|
|---3-0-0-0---0-0-|-0-0-0-0---0-3-0-|---3-0-0-0---0-0-|-0-0-0-0---0-3-0-|


|-----------------|-----------------|-----------------|-----------------|
|-----------------|-----------------|-----------------|-----------------|
|-1---------------|-7-7-5-7---5-----|-----------------|---------------0-|
|---3-0-0-0---0-0-|-------------7-5-|-0---0-0-0-0-0-0-|-3---3---3-3-3---|


|-----------------|-----------------|-----------------|-----------------|
|-----------------|-----------------|-2-2-2-2-2-2-2-4-|-5-5-5-5-5-5-5\0-|
|-2---2-2-2-2-2-2-|-2-3-3-3-3-2-2-3-|-----------------|-----------------|
|-----------------|-----------------|-----------------|-----------------|


|-----------------|-----------------||
|-----------------|-----------------||
|-2-2-2-2-2-2-2-2-|-5-------------7-||
|-----------------|-------------0---||


|--------------------|-------------------|-------------------|--------------------|
|o-------------------|-------------------|-------------------|-------------------o|
|o-(7)\-----------/7-|-(7)\-----------/7-|-(7)\--------------|-------------5---7-o|
|------0-0-0-0-0-0---|-----0-0-0-0-0-0---|-----0-0-0-0-0-0-3-|-(3)-5-5-0-5--------|


|-------------------|-----------------|-----------------|-----------------|
|-------------------|-----------------|-----------------|-----------------|
|-(7)---------------|-----------------|-1---------------|-----------------|
|-----0-0-0-0-0-0-0-|-0-0-0-0-0-0-0-3-|---3-0---0---0-0-|-0-0-0-0---0-0-3-|


|-----------------|-----------------|-----------------|-----------------|
|-----------------|-----------------|-----------------|-----------------|
|-1---------------|-----------------|-1---------------|-----------------|
|---3-0-0-0---0-0-|-0-0-0-0---0-0-3-|---3-0-0-0-0-0-0-|-0-0-0-0---0-0-3-|


|-----------------|-----------------|-----------------|-----------------|
|-----------------|-----------------|-----------------|-----------------|
|-1---------------|-7-7-7-7-7-------|-1---------------|-----------------|
|---3-0-0-0---0-0-|-0-0-0-0-0-0-0-3-|---3-0-0-0---0-0-|-0-0-0-0---0-0-3-|


|-----------------|-----------------|-----------------|-----------------|
|-----------------|-----------------|-----------------|-----------------|
|-1---------------|-----------------|-1---------------|-----------------|
|---3-0-0-0---0-0-|-0-0-0-0---0-0-3-|---3-0-0-0---0-0-|-0-0-0-0---0-0-3-|


|-----------------|-----------------|-----------------|-------------------|
|-----------------|-----------------|-----------------|-------------------|
|-1---------------|-----------0-3-0-|-5-5-5-6-0-0-3---|-(3)-3---3-3-0-3-0-|
|---3-0-0-0---0-0-|-0-0-0-3-5-------|-----------------|-------------------|


|-----------------|-------------------|-----------------|-----------------|
|-----------------|-------------------|-----------------|-----------------|
|-5-5-5-6-0-0-3---|-(3)-3---3-3-0-3-0-|-5-5-5-6-0-0-3---|-----------------|
|-----------------|-------------------|-----------------|-0-3---3---3---3-|


|-----------------|-----------------|-----------------|-----------------|
|-----------------|-----------------|-----------------|-----------------|
|-----------------|-----------------|-------------7\--|-----------------|
|-(5)-------------|-(5)-------------|-(5)-------------|-0-0-0-0-0-0-0-0-|


|-----------------|-----------------|-----------------|-------------------|
|-----------------|-----------------|-----------------|-------------------|
|-----------------|-----------------|-7---------------|-(7)-------5\------|
|-0-0-0-0-0-0-0-0-|-0-3---3---3-----|-0---------------|-(0)---------------|





Comments


Popular Metallica tabs & chords
For Whom The Bell Tolls Bass Tabs
Minus Human 1 Bass Tabs
Stone Dead Forever 1 Bass Tabs
Fuel 3 Tabs
I Disappear 1 Tabs
Low Man's Lyric 1 Tabs
No Remorse 2 Tabs
One 4 Tabs
The Memory Remains 1 Tabs
To Live Is To Die Tabs


Song lyrics



↑ Back to top | Tablatures and chords are parodies/interpretations of the original songs. You may use it for private study, scholarship, research or language learning purposes only
© 2014 AZChords.com Contact us | Privacy policy | DMCA | Add/correct tabs | Request tabs | Top 50 tabs