>
 >
Anesthesia

Anesthesia Bass Tabs

Metallica - Anesthesia chords, tabs, tablatures, lyrics

Guitar lessons | Add/correct | Request | Top 50 tabs Artists:  A B C D E F G H I J K L M N O P Q R S T U V W X Y Z 0-9

Anesthesia Bass Tabs – Metallica

CD, Sheet music, Poster

Do you like Anesthesia? Share with your friends now
Bass TabsBass Tabs v2Bass Tabs v3
ANESTHESIA - PULLING TEETH (Bassline)
                           As recorded by Cliff Burton
                       (From the 1983 Album KILL 'EM ALL)


Gtr I (E A D G) - 'Cliff'

                                I
 3/4
  Gtr I
  Q.   E Q      H       E  +E
|-----------|-------------------|
|-0----0-0--|-<12>----/19-(19)\-|
|-----------|-------------------|
|-----------|-------------------|


 n Time Q=152
   4/4
     E  E  E  E  E  E  E  E    E  E  E  E  E  E  E  E
||-----10-14----10-14----10-|-14----10-14----10-14-----|
||o-12-------12-------12----|----12-------12-------12s=|
||o-------------------------|--------------------------|
||--------------------------|--------------------------|


   E E  E  E E  E  E E    E  E E  E  E E  Q
|----9-12----9-12----9-|-12----9-12----9-12---||
|-10------10------10---|----10------10-------o||
|----------------------|---------------------o||
|----------------------|----------------------||


   E  E  E  E  E  E  E  E    E  E  E  E  E  E  Q
|----10-14----10-14----10-|-14----10-14----10-14--|
|-12-------12-------12----|----12-------12--------|
|-------------------------|-----------------------|
|-------------------------|-----------------------|


                                              H.=H
   E  E  E  E  E  E  E  E    E  E  E  E  E  E  E  E
|----12-16----12-16----12-|-16----12-16----12-16----|
|-14-------14-------14----|----14-------14-------14-|
|-------------------------|-------------------------|
|-------------------------|-------------------------|


   E  E  E  E  E  E  E  E    E  E  E  E  E  E  E  E
|----14-17----14-17----17-|----12-16----12-16----16-|
|-15-------15-------15----|-14-------14-------14----|
|-------------------------|-------------------------|
|-------------------------|-------------------------|


                    Slower Q=132
                     3/4
   H     Q.    S  S    Q   E  E  E  E    Q   Q   Q     Q   E  E  E  E
|-------------------|-----14----10----|---------12--|-----14----10----|
|-14----12----12-12-|-12-----12----12-|-14--10--10--|-12-----12----12-|
|-12----10----------|-----------------|-------------|-----------------|
|-------------------|-----------------|-------------|-----------------|


   Q   Q   Q     Q   E  E  E  E    Q   Q   Q
|-------------|-----14----10----|---------12--|
|-14--10--14--|-12-----12----12-|-14--10--10--|
|---------12--|-----------------|-------------|
|-------------|-----------------|-------------|


                   3/4
   Q   E  E  E  E    Q   E  E  Q
|-----14----10----|---------------|
|-12-----12----12-|-14--10\-------|
|-----------------|---------0-13--|
|-----------------|---------------|


        |---3----|  |--3--|
   Q   +E   +E   E  E  E  E    Q   E  E  E E
|---------------------------|--------14-15---|
|---------------13-12-------|-----15---------|
|-12--(12)-(12)-------15-12-|-13-----------0-|
|---------------------------|----------------|


        |---3----|  |--3--|               |--3--|
   Q   +E   +E   E  E  E  E    Q   E.  S  E  E  E
|---------------------------|---------14-15p14-----|
|---------------13-12-------|-----15-----------15--|
|-12--(12)-(12)-------15-12-|-13-------------------|
|---------------------------|----------------------|


        |---3----|  |--3--|
   Q   +E   +E   E  E  E  E    Q   E  E  E E
|---------------------------|--------14-15---|
|---------------13-12-------|-----15---------|
|-12--(12)-(12)-------15-12-|-13-----------0-|
|---------------------------|----------------|


        |---3----|  |--3--|               |--3--|
   Q   +E   +E   E  E  E  E    Q   E.  S  E  E  E
|---------------------------|---------14-15p14-----|
|---------------13-12-------|-----15-----------15--|
|-12--(12)-(12)-------15-12-|-13-------------------|
|---------------------------|----------------------|


   5/8              3/4                 5/8              3/4
     E  E  E  E  E    E  E  E  E  E  E    E  E  E  E  E    E  E  E  E  E  E
||--------16-------|-------14----14----|-------13-------|-------14----14-----||
||o----16----16----|----14----14----14-|----11----11----|----12----12----12-o||
||o-14----------14-|-12----------------|-11----------11-|-12----------------o||
||-----------------|-------------------|----------------|--------------------||


 5/8              3/4
   E  E  E  E  E    E  E  E  E  E  E
|-------16-------|-------17----17----|
|----16----16----|----17----17----17-|
|-14----------14-|-15----------------|
|----------------|-------------------|


                     5/8
   E  E  E  E  E  E    E  E  E  E  E    E  E   E  E  E
|-------19----------|----19----19----|-------/12-------|
|----17----17-------|-19----19----19-|----14-----14----|
|-17----------17-17-|----------------|-15-----------15-|
|-------------------|----------------|-----------------|


 3/4
   E  E  E  E  E  E    E  E  E  E  E  E
|-------12----------|-------11----12----|
|----14----14----14-|----12----12----12-|
|-14----------14----|-12----------------|
|-------------------|-------------------|


 5/4
          |--3--|
   E  Q   S  S  S  E  E  S  S  E  S  S  S  S
|----14--12h14p12----12----------------------|
|-----------------16----16-14-12-------------|
|-12-----------------------------15-14-12-14-|
|--------------------------------------------|


 3/4
                            |--3--|        |--3--|
   E  E  E  E  E E    E  E  S  S  S  E  E  S  S  S
|-------12---------|-17-19-17h19p17-16-17-16-17-16-|
|----14----14----0-|-------------------------------|
|-15----------15---|-------------------------------|
|------------------|-------------------------------|


                     5/8
                       |--3--|     |--3--|
   E  E  E  E  E  E    S  S  S  E  S  S  S  E E
|----16-------------|----------------------16---|
|-17----17----17-17-|-17-17-17-19-19-19-19------|
|----------17-------|-------------------------0-|
|-------------------|---------------------------|


 5/8              3/4
   E  E  E  E  E    E  E  E  E  E  E    E  E  E  E  E  E
|-------12-------|-------12----------|-------11----12----|
|----14----14----|----14----14----14-|----12----12----12-|
|-15----------15-|-14----------14----|-12----------------|
|----------------|-------------------|-------------------|


 5/4
          |--3--|
   E  Q   S  S  S  E  E  S  S  E  S  S  S  S
|----14--12h14p12----12----------------------|
|-----------------16----16-14-12-------------|
|-12-----------------------------15-14-12-14-|
|--------------------------------------------|


 5/8              6/4
                                 |--3--|        |--3--|
   E  E  E  E  E   E  E     +E   S  S  S  E  E  S  S  S  E  E  E  E  E
|-------12-------|---19b21r(19)-17-19-17-16-17-16h17p16----16----------|
|----14----14----|-0------------------------------------19----17----17-|
|-15----------15-|-----------------------------------------------17----|
|----------------|-----------------------------------------------------|


 3/4
      |--3--|     |--3--|
   E  S  S  S  E  S  S  S  E  E
|-------------------------16\---|
|-17-17-17-17-19-19-19-19-----0-|
|-------------------------------|
|-------------------------------|


 5/8             3/4
  E  E  E  E E     E  E  E  E  E  E
|--------------||--------------------|
|------10------||-------14----14-----|
|---10----10---||----14----14----14/-|
|-8----------8-||-12-----------------|


  E  E  E  E  E  E    Q   Q  Q    E  E  E  E  E  E
|------------------|------------|------10----10-----|
|------14----14----|------------|---10----10----10--|
|-0-12----12----12-|-12--10--7--|-8-----------------|
|------------------|------------|-------------------|


                                               5/8
  E E E E E  E    E  E  E  E  E  E   Q  Q  Q    E  E  E  E E
|-----7s9-9s12-|-------12----12----|----------|---------------|
|---7----------|----12----12----12-|----------|------10-------|
|-5------------|-10----------------|----------|---10----10----|
|--------------|-------------------|-3--5--7--|-8----------8--|


 3/4
   E  E  E  E  E  E    E  E  E  E  E  E
|--------------------|------------------|
|-------14----14-----|------14----14----|
|----14----14----14/-|-0-12----12----12-|
|-12-----------------|------------------|


      |--3--|     |--3--| |--3--|
   E  S  S  S  E  S  S  S E S S S   E  E  E  E  E  E
|---------------------------------|------10----10-----|
|---------------------------------|---10----10----10--|
|-12-12-12-12-10-10-10-10-7-7-7-7-|-8-----------------|
|---------------------------------|-------------------|


  E E E E E  E    E  E  E  E  E  E
|-----7s9-9s12-|-------12----12----|
|---7----------|----12----12----12-|
|-5------------|-10----------------|
|--------------|-------------------|


                        Faster Q=200
 5/4                   4/4
                        |-3-| |-3-|  |-3--| |-3-|
  Q  Q  Q    E E Q      E E E E E E  E  E E E E E
|-------------------||-----------------------------|
|-------------------||o-7-7---9-9---10-10---9-9----|
|----------------0--||o-----0-----0-------0-----0--|
|-3--5--7b9r=7-5----||-----------------------------|


                                                 1.
  |-3-| |-3-|         |-3-| |-3-|  |-3--| |-3-|    |-3--|  |-3--|
  E E E E E E Q  Q    E E E E E E  E  E E E E E    E  E E  E  E E  Q   Q
|-------------------|---------------------------|---------------------------||
|-7-7---6-6---7-----|-7-7---9-9---10-10---9-9---|-10-10---14-14---13\------o||
|-----0-----0----0--|-----0-----0-------0-----0-|-------0-------0------0---o||
|-------------------|---------------------------|---------------------------||


  2.
 2/4               4/4
   |-3--|  |-3--|    |3|       |3|         |3|
   E  E E  E  E E    Q E  Q    Q E  Q      Q E  Q    Q    Q
|-----------------|---------------------|--------------------|
|-10-10---14-14---|-13---14---13---14---|-13---14---13--/19--|
|-------0-------0-|----0-(0)-----0-(0)--|----0-(0)-----------|
|-----------------|---------------------|--------------------|


   Q   Q   E  E   E  E     Q   Q   E  E   E  E
|---------18-----19-----|-18--18--18-----18-----|
|-19--19--19-19--19-19--|-19--19--19-19--19-19--|
|--0---0---0-(0)--0-(0)-|--0---0---0-(0)--0-(0)-|
|-----------------------|-----------------------|


   E  E   E  E   Q   E  E     E  E   E  E   E  E   E +E
|-19-----18-----19--18-----|-19-----18-----19-----18-----|
|-19-19--19-19--19--19-19--|-19-19--19-19--19-19--19-----|
|--0-(0)--0-(0)--0---0-(0)-|--0-(0)--0-(0)--0-(0)--0-(0)-|
|--------------------------|-----------------------------|


  H.       E +E      Q  E E E E E E   Q  Q  +E  E E E   Q  E S S E E E E
|-----------------||----------------|-----------------|---------------------|
|-----------------||----------------|-----------------|----------5---5-7b8r=|
|-0---------------||------2-0-------|----5--(5)---5-7-|----5-5-7---7--------|
|---------/x-(x)\-||-0--3-----3-3-5s|=7---------7-----|-0-------------------|


  +Q     +Q     +Q   Q    Q  E E Q    +E  E
|-----------------------|--------7b9r=(7)---|
|-(7)b8r=(7)b8r=(7)--5--|------5----------5-|
|-----------------------|----x--------------|
|-----------------------|-0-----------------|


  E E E   +E  E E Q    H    +E   Q      S  S
|--------------------|----------14b16--14-14-|
|---5-7b9r(7)-5---5--|-----------------------|
|-7-------------7----|-----------------------|
|--------------------|-0----(0)--------------|


   Q      S  S  E     +E   E  Q     Q  Q   E E  Q
|-14b16--14-14-14b16r(14)-14-14\--|-------12---11---|
|---------------------------------|----------0-(0)--|
|---------------------------------|-----------------|
|---------------------------------|-0--0------------|


                             T     T     T     T     T
   E E  Q    E  S  S  E E    E  E  S  E  T  T  E  E  E  E
|-12---11---12-12-12-11---|-------------------------------|
|----0-(0)--------------0-|-17p14-19p14-19p14-21p14-19p14-|
|-------------------------|-------------------------------|
|-------------------------|-------------------------------|


   T     T     T     T
   E  E  E  E  E  E  Q     Q   E  E  +E   E  Q     E  Q   E  Q   Q
|-----------------------|-16--12-16-(16)-12-16--|-12-16--12-16--16--|
|-17p14-19p14-21p14-17--|-----------------------|-------------------|
|-----------------------|-----------------------|-------------------|
|-----------------------|-----------------------|-------------------|


                                 |--3--|
   S  S  S  S  S  S  S  S  S  S  S  S  S  S  E.
|-16p12----12-16p12----12-16p12-12-12-12-12-14----|
|-------14----------14----------------------------|
|-------------------------------------------------|
|-------------------------------------------------|


   +E      +E   E  E  Q      Q     Q  E  E  +E   S  S  E  E
|-(14)b16r(14)-12----12b13-------|-----------------------------|
|-----------------14--------14\--|------21-(21)-17-17----20b21-|
|--------------------------------|--------------------19-------|
|--------------------------------|-0--0------------------------|


   E  E     E  E  Q  E.  S       +E   E  E     E  E     E  E     E
|-----------------------------|------19-------19-------19-------19-|
|-20-20b21-20-19-17-----19b21-|-(19)----19b20----19b20----19b20----|
|-----------------------------|------------------------------------|
|-----------------------------|------------------------------------|


   E     E  E  E     +E   +E   Q
|-------19-19-19b21r(19)-(19)------|
|-19b20-----------------------17\--|
|----------------------------------|
|----------------------------------|


  Q  E E +E  E E E   E E Q  Q  Q    Q  E E +E  E E E
|------------------|--------------|------------------|
|------------------|--------------|------------2-0---|
|------------------|--------------|----------------3-|
|-0--0-0-(0)-0-0-0-|-0-0-0--0--0--|-0--0-0-(0)-------|


  E E E E +Q   Q    Q  E E E Q  E
|-----------------|---------------|
|-----------------|--------5------|
|-2-1-0-----------|----5-7---7--7-|
|-------3-(3)--0--|-0-------------|


  |-3-|           |--3--|  |--3--|      |-3--|
  Q Q Q Q   Q     E  E  E  E  E  E  Q   E  E E
|--------------|-15-14-12-14p12----12--15-14-2---|
|-5-----5/--0--|----------------14---------------|
|---5-7--------|---------------------------------|
|--------------|---------------------------------|


   |--3--|      |--3--|  |--3--|
   E  E  E  Q   E  E  E  E  E  E
|-14p12----12--15-14-12-14p12----|
|-------14--------------------14-|
|--------------------------------|
|--------------------------------|


   |--3--|
   E  E  E  S  S  S  S  +E   E  S  S  E    E  S  S  +E   E  E  E  Q
|-12------------------------------------|------------------------------|
|----14-12-14p12----12-(12)-------------|-12-14p12-(12)-12----12-12\---|
|----------------14---------14-12-13-14-|------------------14----------|
|---------------------------------------|------------------------------|


  E E E E E E E E   +E  E E E E E Q    Q  E E +E  E E E   Q  Q  Q   E  E
|-----------------|------------------|------------------|----------------|
|-----------------|---------------2--|------------------|----------14-14-|
|-----------------|-----------2------|------------------|----------------|
|-0-0-0-0-0-0-0-0-|-(0)-0-0-0---0----|-0--0-0-(0)-0-0-0-|-0--0--0--------|


   E  E  E  E  E  E  Q     E  E  E  E  Q  Q
|-14----11----------11--|-12----14-14-12-----|
|-11-11----11-14-11-----|----11--------------|
|--0--------------------|-----------------9--|
|-----------------------|--------------------|


                                     TP
  E E Q   E E Q    E S S  E. S S E S Q
|----------------|---------------------|
|-------------6--|-6-6-6-10--7-7-7-7-7-|
|-7-0-9--10-0----|---------------------|
|----------------|---------------------|


  TP      TP          TP
  Q   E E Q   E  E    Q   S  S  S  S  S  S  S  S
|------------------|-----------------------------|
|-8--11-9-9--12-10-|-10--11-11-14-14-11-11-14-12-|
|------------------|-----------------------------|
|------------------|-----------------------------|


                          |--3--|  |--3--|
   +S   E  S  S  S  S  S  E  E  E  E  E  E
|------------------------------------------|
|-(12)-15-12-14-15-14-16-15-17-17-16-17-19-|
|------------------------------------------|
|------------------------------------------|


   |--3--|
   E  E  E  E  E  E  E  Q
|-------18-15-16-17-19-19b21--|
|-17-19-----------0-----------|
|-----------------------------|
|-----------------------------|


   +H      +Q    S  S  S  S    E     +E   E  E  Q   E  E
|-(19)----(19)--19-19-19-19-|-19b21r(19)-16----16--19-16-|
|---------------------------|---------------17-----------|
|---------------------------|----------------------------|
|---------------------------|----------------------------|


   S  S  S  S  S  S  S  S  S  S  S  S  S  E  S
|-19p16----16h19p16----16h19p16----16h19p16----|
|-------17----------17----------17----------17-|
|----------------------------------------------|
|----------------------------------------------|


   S  E.  +E   Q      +E   E  E    E  E  E  E  E  E  E  E
|-16h19--(19)-19b21r=(19)-16----|-16----------------------|
|----------------------------17-|----17----17----------17-|
|-------------------------------|-------16----19-17-19----|
|-------------------------------|-------------------------|


   Q      +Q       +Q    Q     Q  E E +E  E E E
|----------------------------|------------------|
|-19b20r=(19)b20r=(19)--19\--|------------------|
|----------------------------|------------------|
|----------------------------|-0--0-0-(0)-0-0-0-|


  Q  Q  Q  Q    E E E E +E  Q    +E
|-------------|-------------------------|
|-------------|-------------------------|
|-------------|-------------5b7r=(5)b7r=|
|-0--0--0--0--|-0-0-0-0-(0)-------------|


  +Q     +Q   Q  Q    E E E E E E E E   E E E E E E E E   E E E E E E E E
|-------------------|-----------------|-----------------|-----------------|
|-------------------|-----------------|-----------------|-----------------|
|-(5)b7r=(5)--2-----|---------0-----0-|-0-0-4h5-0-4h5-0-|-4h5-0-4h5-0-4h5-|
|----------------0--|-0-0-0-0---3-0---|-----------------|-----------------|


  E E E E E E E E   Q  Q   Q    E   E
|-----------------|--------------------|
|-----------------|-------<5>--<5>-<5>-|
|-0-0-0-0-0-0-0-0-|--------------------|
|-----------------|-0--0---------------|


                             T        T       T       T
   +E    Q    E   E   Q      Q.       E      +Q       Q
|-------------------------|-12(19)---10(17)-(10(17))--9(16)---|
|-(<5>)--------------<5>--|-----------------------------------|
|-------------------------|-----------------------------------|
|-------<4>--<4>-<4>------|-----------------------------------|


  T       T      T      T     T         T     T      T     T      T      T      T
  Q       Q      E      E     Q         E     E      E     E      Q      E      E
|-9(16)-----------------------9(16)--|------------------------------------------------|
|--------10(17)--9(16)-10(17)--------|-10(17)-9(16)----------------------9(16)-10(17)-|
|------------------------------------|--------------10(17)-9(16)-10(17)---------------|
|------------------------------------|------------------------------------------------|


    T    T      T       T
    Q    Q      Q       Q         Q  Q  Q  Q
|-------------------------------|-------------|
|-------10(17)--9(16)-----------|-------------|
|-<19>-----------------12(19)\--|-------------|
|-------------------------------|-0--0--0--0--|


  Q   Q   Q   Q     +W
|----------------|---------*|
|------------16--|-(16)----*|
|----14--14--14--|-(14)----*|
|-0---0---0---0--|--(0)----*|


Duration Legend
---------------
W - whole; H - half; Q - quarter; E - 8th; S - 16th; T - 32nd; X - 64th; a - acciaccatura
+ - note tied to previous; . - note dotted; .. - note double dotted
Uncapitalized letters represent notes that are staccato (1/2 duration)
Irregular groupings are notated above the duration line
Duration letters will always appear directly above the note/fret number it represents the
duration for.  Duration letters with no fret number below them represent rests.  Multi-
bar rests are notated in the form Wxn, where n is the number of bars to rest for.  Low
melody durations appear below the staff

Tablature Legend
----------------
 h   - hammer-on
 p   - pull-off
 b   - bend
 pb  - pre-bend
 r   - bend release (if no number after the r, then release immediately)
 /\  - slide into or out of (from/to "nowhere")
 s   - legato slide
 S   - shift slide
<n>  - natural harmonic
[n]  - artificial harmonic
n(n) - tapped harmonic
 ~   - vibrato
 tr  - trill
 T   - tap
 TP  - trem. picking
 PM  - palm muting
\n/  - tremolo bar dip; n = amount to dip
 \n  - tremolo bar down
 n/  - tremolo bar up
/n\  - tremolo bar inverted dip
 =   - hold bend; also acts as connecting device for hammers/pulls
 <>  - volume swell (louder/softer)
 x   - on rhythm slash represents muted slash
 o   - on rhythm slash represents single note slash

Misc Legend
-----------
 |  - bar
||  - double bar
||o - repeat start
o|| - repeat end
*|  - double bar (ending)
 :  - bar (freetime)
 $  - Segno
 &  - Coda
Tempo markers - <E/E./Q/Q./H/H.> = BPM(8/16=s8/s16), where s8 = swing 8ths, s16 = swing 16ths


***************************************************************************************
***************************************************************************************





Comments


Popular Metallica tabs & chords
Aint My Bitch Bass Tabs
All Nightmare Long Bass Tabs
Blackened 4 Tabs
Blues Jam 1 Tabs
Eye Of The Beholder 1 Tabs
It's Electric Tabs
Motorbreath 1 Tabs
Seek And Destroy 1 Tabs
The Unforgiven I Tabs
Creeping Death 2 Ukulele


Song lyrics



↑ Back to top | Tablatures and chords are parodies/interpretations of the original songs. You may use it for private study, scholarship, research or language learning purposes only
© 2014 AZChords.com Contact us | Privacy policy | DMCA | Add/correct tabs | Request tabs | Top 50 tabs