>
 >
Anesthesia 2

Anesthesia 2 Bass Tabs

Metallica - Anesthesia 2 chords, tabs, tablatures, lyrics

Guitar lessons | Add/correct | Request | Top 50 tabs Artists:  A B C D E F G H I J K L M N O P Q R S T U V W X Y Z 0-9

Anesthesia 2 Bass Tabs – Metallica

CD, Sheet music, Poster

Do you like Anesthesia 2? Share with your friends now
Bass TabsBass Tabs v2Bass Tabs v3
G  :--------------------|--------------------||*---10-14----10-14----10-|
D  :0-------(0)---(0)---|12-------/19\-------|| 12-------12-------12----|
A  :--------------------|--------------------|| ------------------------|
E  :--------------------|--------------------|| ------------------------|

G  :14----10-14----10-14-----|---9-12----9-12----9-|
D  :---12-------12-------12/-|10------10------10---|
A  :-------------------------|---------------------|
E  :-------------------------|---------------------|

G  :12----9-12----9-12---*1|---10-14----10-14----10-|
D  :---10------10-------- ||12-------12-------12----|
A  :--------------------- ||------------------------|
E  :--------------------- ||------------------------|

G  :14----10-14----10-14---|---12-16----12-16----12-|
D  :---12-------12---------|14-------14-------14----|
A  :-----------------------|------------------------|
E  :-----------------------|------------------------|

G  :16----12-16----12-16----|---14-17----14-17----17-|
D  :---14-------14-------14-|15-------15-------15----|
A  :------------------------|------------------------|
E  :------------------------|------------------------|

G  :---12-16----12-16----16-|------------------|-----------14----10----|
D  :14-------14-------14----|14-------12-------|12-12-12------12----12-|
A  :------------------------|12-------10-------|-----------------------|
E  :------------------------|------------------|-----------------------|

G  :----------12--------|14----10--------------|----------14----10----|
D  :14---10---10---12---|---12----12-14---10---|14---12------12----12-|
A  :--------------------|----------------------|12--------------------|
E  :--------------------|----------------------|----------------------|

G  :----------12--------|14----10---------------|------------------|
D  :14---10---10---12---|---12----12-14---10/---|7-----------------|
A  :--------------------|-----------------------|0---------13----12|
E  :--------------------|-----------------------|------------------|

G  :---------------------|-----14-15----------|----------------------|
D  :------13-12----------|--15----------------|--13-12------------15-|
A  :------------15-12-13-|-------------0-12---|--------15-12-13------|
E  :---------------------|--------------------|----------------------|

G  :14-15-14--------------|------------------14-15|------------------|
D  :---------15---------13|-12------------15------|----------------13|
A  :------------12--------|----15-12-13-----------|---0----12--------|
E  :----------------------|-----------------------|------------------|

G  :------------------14-15|p-14----------|*16---------|
D  :-12------------15------|-----15----16-| ---16------|
A  :----15-12-13-----------|--------14----| ------14-12|
E  :-----------------------|--------------| -----------|

G  :----14----14----------13|-------------14----14---|-------*1|
D  :-14----14----14----11---|-11-------12----12----12|----16- ||
A  :----------------11------|----11-12---------------|-14---- ||
E  :------------------------|------------------------|------- ||

G  :16-------------17-|---17----------19-------|------19----19---------/-|
D  :---16-------17----|17----17----17----17----|---19----19----19----14--|
A  :------14-15-------|---------17----------17-|17----------------15-----|
E  :------------------|------------------------|-------------------------|

G  :12-------------12-------|---------11----12-------|
D  :---14-------14----14----|14----12----12----12----|
A  :------15-14----------14-|---12----------------12-|
E  :------------------------|------------------------|

G  :14-12-14-12----12-------------|---------------12-------|
D  :------------16----16-14-12----|------------14----14----|
A  :---------------------------15-|14-12-14-15----------15-|
E  :------------------------------|------------------------|

G  :--17-19-17-19-17-16-17-|16-17-16----16----------|
D  :0----------------------|---------17----17----17-|
A  :-----------------------|------------------17----|
E  :-----------------------|------------------------|

G  :------------------------16------|---12---------19---17-|
D  :17-17-17-17-19-19-19-19---------|14----14----0---------|
A  :---------------------------0-15-|---------15-----------|
E  :--------------------------------|----------------------|

G  :19-17-16-17-16-17-16----|16---------------------------|
D  :---------------------19-|---17----17-17-17-17-17-19-19|
A  :------------------------|------17---------------------|
E  :------------------------|-----------------------------|

G  :------16----------------|-----------------------|
D  :19-19-----------10------|------14----14---------|
A  :---------0---10----10---|---14----14----14-0-12-|
E  :-----------8----------8-|12---------------------|

G  :-------------------------------|
D  :14----14-----------------------|
A  :---12----12-12-(12)(12)(12)10--|
E  :-------------------------------|

G  :-------------------------------10----10--------|
D  :----------------------------10----10----10---7-|
A  :(10)(10)(10)7-(7)-(7)-(7)-8----------------5---|
E  :-----------------------------------------------|

G  :7/-9-9/-12-------12----|12----------------|----------------|
D  :--------------12----12-|---12-------------|----------------|
A  :-----------10----------|------------------|----------------|
E  :-----------------------|------3---5---7---|3---5---7-----5-|

G  :----------------|------------------|----------------|
D  :----7-7---9-9---|10-10---9-9---7-7-|--6-6---7---7-7-|
A  :--------0-----0-|------0-----0-----|0-----0---0-----|
E  :5-5-------------|------------------|----------------|

G  :------------------|--------------------|----------------------|
D  :--9-9---10-10---9-|9---10-10---14-14---|13/---10-10---14-14---|
A  :0-----0-------0---|--0-------0-------0-|----0-------0-------0-|
E  :------------------|--------------------|----------------------|

G  :---------------------|----------------18----19-|
D  :13---14-13---14-13---|14-13-/19-19-19-19-19-19-|
A  :---0-------0-------0-|-----------0--0--0-----0-|
E  :---------------------|-------------------------|

G  :---18-18-18----18----19-|---18----19-18----19----|
D  :19-19-19-19-19-19-19-19-|19-19-19-19-19-19-19-19-|
A  :----0--0--0-----0-----0-|----0-----0--0-----0----|
E  :------------------------|------------------------|

G  :18----19----18---------|------------------|
D  :19-19-19-19-19---------|------------------|
A  :-0-----0-----0---(0)---|------------------|
E  :-----------------------|/x\---------------|





Comments


Popular Metallica tabs & chords
- Human Bass Tabs
Cliff Burton Memorial 2 Bass Tabs
2 X 4 Tabs
53rd And 3rd 1 Tabs
Fixxxer Tabs
Frantic Intro Tabs
Frantic Tick Tick Tick Tick Tock Tabs
Fuel 2 Tabs
Hell And Back 3 Tabs
Unforgiven Ii Intro Tabs


Song lyrics



↑ Back to top | Tablatures and chords are parodies/interpretations of the original songs. You may use it for private study, scholarship, research or language learning purposes only
© 2014 AZChords.com Contact us | Privacy policy | DMCA | Add/correct tabs | Request tabs | Top 50 tabs