>
 >
And Justice For All 3

And Justice For All 3 Guitar Tabs

Metallica - And Justice For All 3 chords, tabs, tablatures, lyrics

Guitar lessons | Add/correct | Request | Top 50 tabs Artists:  A B C D E F G H I J K L M N O P Q R S T U V W X Y Z 0-9

And Justice For All 3 Guitar Tabs – Metallica

CD, Sheet music, Poster

Do you like And Justice For All 3? Share with your friends now
Tabs
...And Justice For All 
Metallica

 Intro: (clean) 
|----------------------------------------------| 
|----------------------------------------------| 
|.---------------------------------------------| 
|.-6-7-9---7-6h7p6-4-5-5-4-7-4-2-3-5---3-2h3p2-| 
|--7-----7---------5-----5---5-3-----3---------| 
|--0-------------------------------------------| 



                        (x 5) 
|----------------------------| 
|----------------------------| 3rd and 4th times 
|-----------------------2---.|     play this with distortion 
|-0-2-2-0-2-0-0-2-2-0-2---3-.| I can't remember how Gtr. 2 goes 
|-2-----2---2-1-----1-----1--| 5th time play all distorted 
|----------------------------| 



 Riff 1: 
|------------------------------|--------------------------| 
|-.----------------------------|--------------------------| 
|-3----.-.----.-.-.----.-.-.-.-|-5-3-2---3-2-----2--------| 
|-3----8-7----8-7-6----8-7-6-5-|-5-3-2-5-3-2-5-3-2-5-3-2--| 
|-1----8-7----8-7-6----8-7-6-5-|-------5-----5-3---5-3-2--| 
|------6-5----6-5-4----6-5-4-3-|--------------------------| 



|---------------------------------| 
|---------------------------------| 
|--2------------------------------| 
|--2--5--3--2----5-3-2---2--------| 
|-----5--3--2----5-3-2-5-2-5-3-2--| 
|----------------------5---5-3-2--| 



 Riff 2                                                         (x 4) 
|--------------------------------|-----------------------------------| 
|--------------------------------|-----------------------------------| 
|--------------------------------|.---------------------------------.| 
|-2------------------------(2)---|.-(2)-------------------------(2)-.| 
|-2------------------------(2)---|--(2)-------------------------(2)--| 
|-0------------------------(0)---|--(0)-------------------------(0)--| 



 Riff 3: (x 4) 
|------------------------------------------------| 
|------------------------------------------------| 
|-.-.----.-.------------------.-.----------------| 
|-8-8-7--8-8-7---------------8-8-7---------------| 
|-8-8-7--8-8-7----5h7-7-5----8-8-7----5h7-7-5----| 
|-6-6-5--6-6-5--0---------7--6-6-5--0---------7--| 



 Riff 4: 
|-------------------------|-----------|-----------|-----------| 
|-------------------------|-----------|-----------|-----------| 
|-.-.----.-.--------------|-2---------|-----------|-2---------| 
|-8-8-7--8-8-7--2---------|-2---------|-2---------|-2---------| 
|-8-8-7--8-8-7--2---------|-0---------|-2---------|-0---------| 
|-6-6-5--6-6-5--0---------|-----------|-0---------|-----------| 



Riff 3 (x 2) 



 Riff 5: 
|-------------------------------------------------| 
|-------------------------------------------------| 
|-.-.----.-.------.----.--------------.----.------| 
|-8-8-7--5-5-4----2--x-2-2-------3----2--x-2--2---| 
|-8-8-7--5-5-4--.-2--x-2-2---.-.-3--.-2--x-2--2---| 
|-6-6-5--3-3-2--0-0--x-0-0---0-0-1--0-0--x-0--0---| 



|---------------------------------------------------------------| 
|---------------------------------------------------------------| 
|-.-.----.-.------.----.--------------.----.------.-.----.-.----| 
|-8-8-7--8-8-7----2--x-2-2-------3----2--x-2--2---8-8-7--8-8-8\-| 
|-8-8-7--8-8-7--.-2--x-2-2---.-.-3--.-2--x-2--2---8-8-7--8-8-8\-| 
|-6-6-5--6-6-5--0-0--x-0-0---0-0-1--0-0--x-0--0---6-6-5--6-6-6\-| 



Verse 1 
======= 



 Riff 6: (x 4) 
|-------------------------------------------------| 
|-------------------------------------------------| 
|--------.-------------------.------.-.----.-.----| 
|---2--x-2-2-------3----2--x-2--2---8-8-7--8-8-7--| 
|-.-2--x-2-2---.-.-3--.-2--x-2--2---8-8-7--8-8-7--| 
|-0-0--x-0-0---0-0-1--0-0--x-0--0---6-6-5--6-6-5--| 



 Fill 1: ?? 
|-----------------------------| 
|-----------------------------| 
|-----------------------------| 
|-----------------------------| 
|-----------------------------| 
|-----------------------------| 



 Riff 7:                  (x 3) 
|-------------------------------|------------------------------------| 
|-------------------------------|------------------------------------| 
|.-----------------------------.|--------------0h5h7-----------------| 
|.-3-------------4\3---4/5-4/5-.|-3-----------------0h5h7------------| 
|--3-------------4\3---4/5-4/5--|-3----------------------0h5h7-0h2h3-| 
|--1-1-1-1-1-1-1-2\1-0-2/3-2/3--|-1-1-1-1-1-1-1----------------------| 



                          (x 3) 
|-------------------------------|------------------------------------| 
|-------------------------------|------------------------------------| 
|.-----------------------------.|--------------0h5h7-----------------| 
|.-3-------------4\3---4/5-4/5-.|-3-----------------0h5h7------------| 
|--3-------------4\3---4/5-4/5--|-3----------------------0h5h7-0h2h3-| 
|--1-1-1-1-1-1-1-2\1-0-2/3-2/3--|-1-1-1-1-1-1-1----------------------| 



|-------------------------------------------------------| 
|-------------------------------------------------------| 
|-0h5h7-------------------------------------------------| 
|------0h5h7------------4-2--------------4\3---4/5-4/5--| 
|-----------0h5h7-0h2h3-4-2--------------4\3---4/5-4/5--| 
|-----------------------2-0--0-0-0-0-0-0-2\1-0-2/3-2/3--| 



Chorus 
====== 



 Riff 8: 
|-------------------------------------------------| 
|-------------------------------------------------| 
|--2----4----5------------------------------------| 
|--2----4----5----4-2--------------4\3---4/5-4/5--| 
|--0----2----3----4-2--------------4\3---4/5-4/5--| 
|-----------------2-0--0-0-0-0-0-0-2\1-0-2/3-2/3--| 



|------------------------------------------|-------------------------| 
|------------------------------------------|-------------------------| 
|-2----4-----------------------------------|-2----4----0----5--------| 
|-2----4----4-2--------------4\3---4/5-4/5-|-2----4----0----5----2---| 
|-0----2----4-2--------------4\3---4/5-4/5-|-0----2---------3----2---| 
|-----------2-0--0-0-0-0-0-0-2\1-0-2/3-2/3-|-----------3---------0---| 



Riff 3 (x 2) 
Riff 5 
Verse 
Chorus 



Riff 3 (x 2) 
Riff 1 
Riff 2 



Solo 
==== 



Riff 7 
Riff 6 (x ?) 



Fill 2: ?? 
|------------------------------------------| 
|------------------------------------------| 
|------------------------------------------| 
|------------------------------------------| 
|------------------------------------------| 
|------------------------------------------| 



Riff 6 (x 3) 
|--------------------------------------------------------------------| 
|--------------------------------------------------------------------| 
|--------------------------------------------------------------------| 
|-8-8-7--8-8-7--7-7-6--7-7-6--6-6-5--6-6-5--5-5-4--5-5-4--3-4-4-4-4--| 
|-8-8-7--8-8-7--7-7-6--7-7-6--6-6-5--6-6-5--5-5-4--5-5-4--3-4-4-4-4--| 
|-6-6-5--6-6-5--5-5-4--5-5-4--4-4-3--4-4-3--3-3-2--3-3-2--1-2-2-2-2--| 



Intro (x 5) w/distortion 
                                                                (x 3) 
|--------------------------------------------------|-----------------| 
|--------------------------------------------------|-----------------| 
|------.-.---.-----.-.---.-----.-.---.-----.-.---.-|.-----.-.---.---.| 
|--6---6-6-6-6-4---4-4-4-4-2---2-2-2-2-0---0-0-0-0-|.-0---0-0-0-0---.| 
|--7---7-7-7-7-5---5-5-5-5-3---3-3-3-3-2---2-2-2-2-|--1---1-1-1-1----| 
|--------------------------------------------------|-----------------| 



                                            (x 2) 
|--------------------|---------------------------| 
|--------------------|---------------------------| 
|--------------------|.-------------------------.| 
|--2------------(2)--|.-(2)-----------------(2)-.| 
|--2------------(2)--|--(2)-----------------(2)--| 
|--0------------(0)--|--(0)-----------------(0)--| 



Riff 3 (x 2) 



 Fill 3: 
|--------------| 
|--------------| 
|-.-.----.-.---| 
|-8-8-7--2-2-3-| 
|-8-8-7--2-2-3-| 
|-6-6-5--0-0-1-| 



Verse 
Chorus 
Riff 4 (repeat last bar) 
Riff 8 (last bar only) 
Riff 4 



|---------|---------|---------|---------|---------| 
|---------|---------|---------|---------|---------| 
|-7-------|-5-------|---------|---------|-.-.-.---| 
|-7-------|-5-------|-7-------|-5-------|-5-4-2---| 
|-5-------|-3-------|-7-------|-5-------|-5-4-2---| 
|---------|---------|-5-------|-3-------|-3-2-0---| 



|---------|---------|---------|---------| 
|---------|---------|---------|---------| 
|---------|-5-------|---------|-.-.-.---| 
|-5-------|-5-------|-7-------|-5-4-2---| 
|-5-------|-3-------|-7-------|-5-4-2---| 
|-3-------|---------|-5-------|-3-2-0---| 



|---------|---------|---------|---------| 
|---------|---------|---------|---------| 
|---------|-.-.-.---|---------|-.-.-.---| 
|-5-------|-5-4-2---|---------|-5-4-2---| 
|-5-------|-5-4-2---|---------|-5-4-2---| 
|-3-------|-3-2-0---|---------|-3-2-0---| 





Comments


Popular Metallica tabs & chords
Anesthesia 2 Bass Tabs
...And Justice For All 2 Tabs
Dazed And Confused 1 Tabs
Enter Sandman 2 Tabs
For Whom The Bell Tolls 1 Tabs
Never Never Land Tabs
Orion 1 Tabs
The Outlaw Torn 2 Tabs
The Wait Tabs
Die Die My Darling Ukulele


Song lyrics



↑ Back to top | Tablatures and chords are parodies/interpretations of the original songs. You may use it for private study, scholarship, research or language learning purposes only
© 2014 AZChords.com Contact us | Privacy policy | DMCA | Add/correct tabs | Request tabs | Top 50 tabs