>
 >
And Justice For All 3

And Justice For All 3 Bass Tabs

Metallica - And Justice For All 3 chords, tabs, tablatures, lyrics

Guitar lessons | Add/correct | Request | Top 50 tabs Artists:  A B C D E F G H I J K L M N O P Q R S T U V W X Y Z 0-9

And Justice For All 3 Bass Tabs – Metallica

CD, Sheet music, Poster

Do you like And Justice For All 3? Share with your friends now
Bass TabsBass Tabs v2Bass Tabs v3Bass Tabs v4Drum TabsTabs
-------------------------------------------------------------------------------
		"...And Justice For All" --- Metallica
-------------------------------------------------------------------------------






Tuning: Standard (E A D G) [low to high]



Legend: 

h = hammer on
p = pull off
~ = vibrato
b = bend
x = muffled string
() = note not picked
/ = slide up
\ = slide down
h/ =  pick once
p\ = pick once
h/p\ = pick once 

 


Guitars come in with distortion here:

G|----------------------------------------|
D|----------------------------------------|
A|-2-2-2-2-2-2-1-1-1-1-1---1~~~~~~~(1)p\--|
E|-----------------------1----------------|

    Those are 2s and 1s, not 22s and 11s:
G|--------------------------------------------------------------------------|
D|-2-2--2--2-----------4----------------------------------------------------|
A|------------5--5--55---5-7-3-3--3--3--2-2--22-2-2-2-1-1--11-1-1-1--1~~~~~~|
E|--------------------------------------------------------------------------|


G|-------------------------------------------------------------------------------------------|
D|---------------------------------8-7-5---7-5-----5-------------3--2--0-----2-0-----0-------|
A|-1----1--0----1------------------------8-----8-7---8-7-5-8-7------------3------3-2---3-2-0-|
E|-----------------5-4---6-5-4-3-------------------------------------------------------------|


G|---------------------------------------------------------------------------|
D|---------------------------------------------------------------------------|
A|---------------------------------------------------------------------------|
E|-0~~~~~~~~~~~~~~~~~~~~~~~~~~~~~~~~~~~~~~~~~~~~~~~~~~~~~~~~~~~~~~~~~~~~~~~~~|

                   [-------------------------x4----------------------------]
G|----------------|---------------------------------------------------------|
D|----------------|---------------------------------------------------------|
A|----------------|----5h7--7--5---------------5h7--7--5--------------------|
E|-6-6--5--6-6--5-|-0-------------7--6-6--5--0------------7--6-6--5--6-6--5-|




G|-------------------------------------------------------|
D|-------------------------------------------------------|
A|-------------------------------------------------------|
E|-0---0--0---0--0--0-0--0--5--5-0--5--5--5-5-5-0-5-5--5-|


G|-------------------------------------------------------|
D|-------------------------------------------------------|
A|-------------------------------------------------------|
E|-0---0--0---0--0--0-0--0--5--5-0--5--5--5-5-5-0-1-1--0-|


G|--------------------------------------------------------|
D|--------------------------------------------------------|
A|---5h7--7--5---------------5h7--7--5--------------------|
E|-0------------7--6-6--5--0------------7--6-6--5--6-6--5-|


G|--------------------------------------------------------|
D|--------------------------------------------------------|
A|---5h7--7--5---------------5h7--7--5--------------------|
E|-0------------7--6-6--5--0------------7--6-6--5--3-3--2-|


G|------------------------------------------------------|
D|------------------------------------------------------|
A|------------------------------------------------------|
E|-0-0--0--0--0--0-0--1--0-0--0-0-0--0--/6-6--5--6-6--5-|


G|------------------------------------------------------|
D|------------------------------------------------------|
A|------------------------------------------------------|
E|-0-0--0--0--0--0-0--1--0-0--0-0-0--0-/6-6--5--5-6--6\-|


============================================================
Verse 1:
G|-------------------------------------------------------|
D|-------------------------------------------------------|
A|-------------------------------------------------------|
E|-0-0-0-0--0--0--0-0--1--0-0-0-0--0--0--/6-6--5--6-6--5-|


G|--------------------------------------------------------|
D|--------------------------------------------------------|
A|--------------------------------------------------------|
E|-0-0-0-0--0--0--0-0--1--0-0-0-0--0--0--/6-6--5--5-6--6\-|


G|-------------------------------------------------------|
D|-------------------------------------------------------|
A|-------------------------------------------------------| x2
E|-0-0-0-0--0--0--0-0--1--0-0-0-0--0--0--/6-6--5--6-6--5-|


=============================================================
Pre Chorus 1:
G|-----------------------------------------------------------------------------------|
D|-----------------------------------------------------------------------------------|
A|---7-7-----5-5---------------------------------------------------------------------|
E|-0-----0-0-----3--2--2-2-2-2-2-2-3-2-0-2h3~~~-2h3--2--2-2-2-2-2-2-3-2-0-2h3~~~-2h3-|


G|-----------------------------------------------0h5h7-------------------|
D|-----------------------------------------------------0h5h7-------------|
A|-----------------------------0-----------------------------0h5h7-------|
E|-2--2-2-2-2-2-2-3-2-0-2h3~~~----2--2-2-2-2-2-2-------------------5h7h8-|


G|----------------------------------------------------------------------------------|
D|----------------------------------------------------------------------------------|
A|----------------------------------------------------------------------------------|
E|-2--2-2-2-2-2-2-3-2-0-2h3~~~-2h3--2--2-2-2-2-2-2-3-2-0-2h3~~~-2h3--2--2-2-2-2-2-2-|


G|-------------------------------------------------------------|
D|-------------------------------------------------------------|
A|--------------0----------------------------------------------|
E|-3-2-0-2h3~~~----2--2-2-2-2-2-2--3-------3-------3-----------|

===============================================================
Chorus 1:
G|---------------------------------------------------------------------------|
D|---------------------------------------------------------------------------|
A|---------------------------------------------------------------------------|
E|-0--0-0-0-0-0-0-1-0-0-0h1~~~-0h1--5--5-5-5-3--5--/7~~~~~--7-5--7--8~~~~--1-|


G|---------------------------------------------------------------------------------------|
D|---------------------------------------------------------------------------------------|
A|----------------------------------------------2~~~~~-----------------------------------|
E|-0--0-0-0-0-0-0-1-0-x-0h1~~~-0h1--5~~~5-3--5--------1--0--0-0-0-0-0-0-1-0-x-0h1~~~-0h1-|


G|-----------------------------------------------------------------------|
D|-----------------------------------------------------------------------|
A|--------------2~~~2-0--2--------------3---3--3--3----------------------|
E|-5~~~~5-3--5--------------3--3--3--3---------------1~~~~6-6--5--6-6--5-|

===============================================================
G|--------------------------------------------------------|
D|--------------------------------------------------------|
A|---5h7--7--5---------------5h7--7--5--------------------|
E|-0------------7--6-6--5--0------------7--6-6--5--6-6--5-|


G|--------------------------------------------------------|
D|--------------------------------------------------------|
A|---5h7--7--5---------------5h7--7--5--------------------|
E|-0------------7--6-6--5--0------------7--6-6--5--3-3--2-|


G|------------------------------------------------------|
D|------------------------------------------------------|
A|------------------------------------------------------|
E|-0-0--0--0--0--0-0--1--0-0--0-0-0--0--/6-6--5--6-6--5-|


G|------------------------------------------------------|
D|------------------------------------------------------|
A|------------------------------------------------------|
E|-0-0--0--0--0--0-0--1--0-0--0-0-0--0-/6-6--5--5-6--6\-|

================================================================
Verse 2:
G|-------------------------------------------------------|
D|-------------------------------------------------------|
A|-------------------------------------------------------|
E|-0-0-0-0--0--0--0-0--1--0-0-0-0--0--0--/6-6--5--6-6--5-|


G|--------------------------------------------------------|
D|--------------------------------------------------------|
A|--------------------------------------------------------|
E|-0-0-0-0--0--0--0-0--1--0-0-0-0--0--0--/6-6--5--5-6--6\-|


G|-------------------------------------------------------|
D|-------------------------------------------------------|
A|-------------------------------------------------------| x2
E|-0-0-0-0--0--0--0-0--1--0-0-0-0--0--0--/6-6--5--6-6--5-|


=============================================================
Pre Chorus 2:
G|-----------------------------------------------------------------------------------|
D|-----------------------------------------------------------------------------------|
A|---7-7-----5-5---------------------------------------------------------------------|
E|-0-----0-0-----3--2--2-2-2-2-2-2-3-2-0-2h3~~~-2h3--2--2-2-2-2-2-2-3-2-0-2h3~~~-2h3-|


G|-----------------------------------------------0h5h7-------------------|
D|-----------------------------------------------------0h5h7-------------|
A|-----------------------------0-----------------------------0h5h7-------|
E|-2--2-2-2-2-2-2-3-2-0-2h3~~~----2--2-2-2-2-2-2-------------------5h7h8-|


G|----------------------------------------------------------------------------------|
D|----------------------------------------------------------------------------------|
A|----------------------------------------------------------------------------------|
E|-2--2-2-2-2-2-2-3-2-0-2h3~~~-2h3--2--2-2-2-2-2-2-3-2-0-2h3~~~-2h3--2--2-2-2-2-2-2-|


G|-------------------------------------------------------------|
D|-------------------------------------------------------------|
A|--------------0----------------------------------------------|
E|-3-2-0-2h3~~~----2--2-2-2-2-2-2--3-------3-------3-----------|

===============================================================
Chorus 2:
G|---------------------------------------------------------------------------|
D|---------------------------------------------------------------------------|
A|---------------------------------------------------------------------------|
E|-0--0-0-0-0-0-0-1-0-0-0h1~~~-0h1--5--5-5-5-3--5--/7~~~~~--7-5--7--8~~~~--1-|


G|---------------------------------------------------------------------------------------|
D|---------------------------------------------------------------------------------------|
A|----------------------------------------------2~~~~~-----------------------------------|
E|-0--0-0-0-0-0-0-1-0-x-0h1~~~-0h1--5~~~5-3--5--------1--0--0-0-0-0-0-0-1-0-x-0h1~~~-0h1-|


G|-----------------------------------------------------------------------|
D|-----------------------------------------------------------------------|
A|--------------2~~~2-0--2--------------3---3--3--3----------------------|
E|-5~~~~5-3--5--------------3--3--3--3---------------1~~~~6-6--5--6-6--5-|

===============================================================
G|---------------------------------------------------------|
D|---------------------------------------------------------|
A|----5h7--7--5---------------5h7--7--5--------------------| x2
E|-0-------------7--6-6--5--0------------7--6-6--5--6-6--5-|

================================================================

G|-------------------------------------------------------------------------------------------|
D|---------------------------------8-7-5---7-5-----5-------------3--2--0-----2-0-----0-------|
A|-1----1--0----1------------------------8-----8-7---8-7-5-8-7------------3------3-2---3-2-0-|
E|-----------------5-4---6-5-4-3-------------------------------------------------------------|
 
================================================================
Pre-Guitar Solo:

G|--------------------------------|
D|--------------------------------|
A|----------------7-7-5-3-2-0-----|
E|-0--0-0-0-0-0-0-------------3-1-|

================================================================
Guitar Solo 1:
G|------------------------------------------------------------------|
D|------------------------------------------------------------------|
A|------------------------------------------------------------------|
E|-0--0-0-0-0-0-0-1-0-x-0h1~~~-0h1--0--0-0-0-0-0-0-1-0-x-0h1~~~-0h1-|


G|-----------------------------------------------0h5h7-------------------|
D|-----------------------------------------------------0h5h7-------------|
A|-----------------------------------------------------------0h5h7-0h2h3-|
E|-0--0-0-0-0-0-0-1-0-x-0h1~~~-3--0--0-0-0-0-0-0-------------------------|


G|------------------------------------------------------------------|
D|------------------------------------------------------------------|
A|------------------------------------------------------------------|
E|-0--0-0-0-0-0-0-1-0-x-0h1~~~-0h1--0--0-0-0-0-0-0-1-0-x-0h1~~~-0h1-|


G|-----------------------------------------------0h5h7-------------------|
D|-----------------------------------------------------0h5h7-------------|
A|-----------------------------------------------------------0h5h7-0h2h3-|
E|-0--0-0-0-0-0-0-1-0-x-0h1~~~-3--0--0-0-0-0-0-0-------------------------|

G|-0h5h7----------------------------------|
D|-------0h5h7----------------------------|
A|-------------0h5h7-0h2h3-3-3--2--3-3--2-|
E|----------------------------------------|

===================================================================
Guitar Solo 2:
G|---------------------------------------------------------------------------|
D|---------------------------------------------------------------------------|
A|---------------------------------------------------------------------------|
E|-0-2----0--2--2--0-2--2---0-2---0--2----2---0-0--3--0-2---0--2--2---0-2--3-|


G|--------------------------------------------------------------------------------|
D|--------------------------------------------------------------------------------|
A|-----------------3-3--2--3-3--2-------------------------------------------------|
E|-0-2---0--2--2-------------------0-2----0--2--2--0-2--2---0-2---0--2----2---0-0-|


G|-----------------------------------------------------------|
D|-----------------------------------------------------------|
A|--------------------------------------------3-3--2--3-3--2-|
E|-3--0-2---0--2--2---0-2--3--0-2---0--2--2------------------|


G|--------------------------------------------------------------------------|
D|---2-2-----0-0-----2-2-----0-0-----0-0------------------------------------|
A|-------------------------------------------3-3-----3-3-----2-2------------|
E|-0-----0-0-----3-0-----0-0-----3-0-----0-0-----1-0-----0-0-----3---0------|

====================================================================
Interlude:
G|-------------------------------------------------------|
D|-------------------------------------------------------|
A|-------------------------------------------------------|
E|-0-0-0-0--0--0--0-0--1--0-0-0-0--0--0--/6-6--5--6-6--5-|


G|-------------------------------------------------------|
D|-------------------------------------------------------|
A|-------------------------------------------------------|
E|-0-0-0-0--0--0--0-0--1--0-0-0-0--0--0--/6-6--5--5-6--6-|

G|-------------------------------------------------------|
D|-------------------------------------------------------|
A|-------------------------------------------------------| x2
E|-0-0-0-0--0--0--0-0--1--0-0-0-0--0--0--/6-6--5--6-6--5-|


G|-----------------------------------------------------------------------4-|
D|-------------------------------------------------------------2-2--2--2---|
A|-------------------------------------------------------------------------|
E|-5-5--3--5-5--3--3-3--2--3-3--2--2-2--2--2-2--2--1-1-1-1-1-1-------------|


G|------------------------------------------------------------|
D|-----------------------5------------------------------------|
A|-5-5-5-5-5-5-3-3--3--3---2-2-2-2-2-2-1-1-1-1-1-1--1~~~~~~~~~|
E|------------------------------------------------------------|


G|-----------4---------------------------------------------------------------|
D|-2-2--2--2-------------------------5---------------------------------------|
A|-------------5-5-5-5-5-5-3-3--3--3---2-2-2-2-2-2-1-1-1-1-1-1--1~~~~~~~~~~~~| x4
E|---------------------------------------------------------------------------|


G|------------------------------------------------|
D|-2------2----0------0---------------------------|
A|-------------------------3------3----2------2---|
E|----0-0---0-----0-0---0-----0-0---0-----0-0---0-|


G|---------------------------------|
D|---------------------------------|
A|---------------------------------|
E|-6--0-0--6--6--0-0--6--6--0-0--6-|


G|---------------------------------------------------------------------------|
D|---------------------------------------------------------------------------|
A|---------------------------------------------------------------------------|
E|-0~~~~~~~~~~~~~~~~~~~~~~~~~~~~~~~~~~~~~~~~~~~~~~~~~~~~~~~~~~~~~~~~~~~~~~~~~|


G|----------------|
D|----------------|
A|-1-1--0--1-1--0-|
E|----------------|


G|--------------------------------------------------------|
D|--------------------------------------------------------|
A|---5h7--7--5---------------5h7--7--5--------------------|
E|-0------------7--6-6--5--0------------7--6-6--5--6-6--5-|


G|--------------------------------------------------------|
D|--------------------------------------------------------|
A|---5h7--7--5---------------5h7--7--5--------------------|
E|-0------------7--6-6--5--0------------7--6-6--5--3-3--2-|

======================================================================
Verse 3:
G|-------------------------------------------------------|
D|-------------------------------------------------------|
A|-------------------------------------------------------|
E|-0-0-0-0--0--0--0-0--1--0-0-0-0--0--0--/6-6--5--6-6--5-|


G|--------------------------------------------------------|
D|--------------------------------------------------------|
A|--------------------------------------------------------|
E|-0-0-0-0--0--0--0-0--1--0-0-0-0--0--0--/6-6--5--5-6--6\-|


G|-------------------------------------------------------|
D|-------------------------------------------------------|
A|-------------------------------------------------------| x2
E|-0-0-0-0--0--0--0-0--1--0-0-0-0--0--0--/6-6--5--6-6--5-|


G|---------------------------------|
D|---2-2-----0-0-----2-2-----0-0---|
A|---------------------------------|
E|-0-----0-0-----3-0-----0-0-----3-|

========================================================================
Pre Chorus 3:
G|----------------------------------------------------------------------------------|
D|----------------------------------------------------------------------------------|
A|----------------------------------------------------------------------------------|
E|-2--2-2-2-2-2-2-3-2-0-2h3~~~-2h3--2--2-2-2-2-2-2-3-2-0-2h3~~~-2h3--2--2-2-2-2-2-2-|


G|--------------------------------0h5h7-------------------|
D|--------------------------------------0h5h7-------------|
A|--------------------------------------------0h5h7-0h2h3-|
E|-3-2-0-2h3~~~-5--2--2-2-2-2-2-2-------------------------|


G|----------------------------------------------------------------------------------|
D|----------------------------------------------------------------------------------|
A|----------------------------------------------------------------------------------|
E|-2--2-2-2-2-2-2-3-2-0-2h3~~~-2h3--2--2-2-2-2-2-2-3-2-0-2h3~~~-2h3--2--2-2-2-2-2-2-|


G|---------------------------------------------------------|
D|---------------------------------------------------------|
A|---------------------------------------------------------|
E|-3-2-0-2h3~~~-5--2--2-2-2-2-2-2--3-------3------3--------|

==========================================================================
Chorus 3:
G|---------------------------------------------------------------------------|
D|---------------------------------------------------------------------------|
A|---------------------------------------------------------------------------|
E|-0--0-0-0-0-0-0-1-0-0-0h1~~~-0h1--5--5-5-5-3--5--/7~~~~~--7-5--7--8~~~~--1-|


G|---------------------------------------------------------------------------------------|
D|---------------------------------------------------------------------------------------|
A|----------------------------------------------2~~~~~-----------------------------------|
E|-0--0-0-0-0-0-0-1-0-x-0h1~~~-0h1--5~~~5-3--5--------1--0--0-0-0-0-0-0-1-0-x-0h1~~~-0h1-|


G|-----------------------------------------------------------------------|
D|-----------------------------------------------------------------------|
A|--------------2~~~2-0--2--------------3---3--3--3----------------------|
E|-5~~~~5-3--5--------------3--3--3--3---------------1~~~~6-6--5--6-6--5-|

==========================================================================

G|----------------------------------------------------------------------------|
D|----------------------------------------------------------------------------|
A|----------------------------------------------------------------------------|
E|-0--0---0---0--0--0-0--0--5---5---5---5--5--5-5-5-0-5-5--5--0--0---0---0--0-|


G|---------------------------------------------------------------------------------------|
D|---------------------------------------------------------------------------------------|
A|-0--0-0-0----0--2--2-2-2-0--2--3--3-3-3-3--3--3--3-3-3-3-3-0------------1-1--0--1-1--0-|
E|----------3---------------------------------------------------1~~~~~~~1----------------|

==========================================================================
Outro:
G|-----------------------------------------------------------|
D|-----------------------------------------------------------|
A|-----------------------------------------------------------| x2
E|-0--0---0---0--0--0-0--0--5---5---5---5--5--5-5-5-0-5-5--5-|


G|----------------------------------------------------------------------------------------|
D|-------------------------0-0-0-0-0-0--0--0-0--0-----------------------------------------|
A|------------------------------------------------2-2-2-2-2-2--2--2-2--2--0-0-0-0-0-0-0---|
E|-0-0-0-0-0-0--0--0-0--0---------------------------------------------------------------0-|


G|--------------------------------------------------------|
D|---------------------------------0-0-0-0-0-0--0--0-0--0-|
A|--------------------------------------------------------|
E|-3-3--2--0-0-0-0-0-0--0--0-0--0-------------------------|


G|---------------------------------------------------------------|
D|---------------------------------------------------------------|
A|---------------------------------------------------------------|
E|-7-7-7-7-7-7--5--7-7--5--5-5-5-5-5-5-5-0-3-3--2--------3-2--0--|


Please Rate and Comment My Tab.
Thanks
[travis]





Comments


Popular Metallica tabs & chords
Bass/Guitar Doodle 1 Bass Tabs
Fight Fire With Fire Bass Tabs
For Whom The Bell Tolls 3 Bass Tabs
Metal Militia Tabs
Metal Militia 2 Tabs
My Friend Of Misery Complete Intro Tabs
Sweet Amber Tabs
The Four Horsemen 1 Tabs
Through The Never 2 Tabs
Until It Sleeps 2 Tabs


Song lyrics



↑ Back to top | Tablatures and chords are parodies/interpretations of the original songs. You may use it for private study, scholarship, research or language learning purposes only
© 2014 AZChords.com Contact us | Privacy policy | DMCA | Add/correct tabs | Request tabs | Top 50 tabs