>
 >
And Justice For All

And Justice For All Bass Tabs

Metallica - And Justice For All chords, tabs, tablatures, lyrics

Guitar lessons | Add/correct | Request | Top 50 tabs Artists:  A B C D E F G H I J K L M N O P Q R S T U V W X Y Z 0-9

And Justice For All Bass Tabs – Metallica

CD, Sheet music, Poster

Do you like And Justice For All? Share with your friends now
Bass TabsBass Tabs v2Bass Tabs v3Bass Tabs v4Drum TabsTabs
Metallica - ...And Justice For All
Album     - ...And Justice For All (1988)
-----------------------------------------
Guitar I   - Bass (E,A,D,G)
Guitar II  - Bass (B,E,A,D,G)
-----------------------------------------
I know that this tab is pretty much perfect, as I used Jason Newsted's isolated
bass track to tab it.  It can be found here

And here's a version of the song with the bass track turned up.

  If you have any questions or comments, feel free to


Intro 1 -
Fifteen bars of guitar.  Then;

 3/4 Time
  Guitar I
G|-------------|--------------|-------------|
D|-------------|--------------|-------------|
A|-2-2-2---2---|-1-1-1-1-1----|-1-----------|
E|-------0---0-|------------0-|-------------|

Rest for three more bars.

G|-------------|--------------|-------------|
D|-------------|--------------|-------------|
A|-2-2-2---2---|-1-1-1-1-1----|-1-------1-/-|
E|-------0---0-|------------0-|-------------|

G|-------------|--------------|-------------|-------------|--------------|
D|-------------|--------------|-------------|-------------|--------------|
A|-7-7-7---7---|-5-5-55---5---|-3-3-3---3---|-2-2-22502-2-|-1-1-11---1-1-|
E|----------000|-------2----0-|-----------0-|-------------|--------0-----|
            [3]

G|-------------|
D|-------------|
A|-1--------///|
E|-------------|


Intro 2 -

 4/4 Time                             3/4
G|-----------------|-----------------|-------------|
D|-----------------|-----------------|-------------|
A|-----------------|-----------------|-------------|
E|-6-------6-5-----|-6-5-4-------6-5-|-4-3---------|
 |
 |Guitar II
G|-----------------|-----------------|-------------|
D|-----------------|-----------------|-------------|
A|-1---------------|-----------------|-------------|
E|-----------------|-----------------|-------------|
B|-----------------|-----------------|-------------|

  Guitar II
G|-----------------|-----------------|
D|-----------------|-----------------|
A|-----------------|-----------------|
E|-6-5-3-1-5-3-1-0-|-3-1-0-----------|
B|-----------------|-------3-6-5-----|

G|-----------------|-----------------|-----------------|-----------------|
D|-3---2---0-------|-2-0-----0-------|-----------------|-----------------|
A|-------------3---|-----3-2---------|-----------------|-----------------|
E|-----------------|-----------3-2-1-|-0---------------|-----------------|
B|-----------------|-----------------|-----------------|-----------------|
                                                        2/4
G|-----------------|-----------------|-----------------|------------|
D|-----------------|-----------------|-----------------|------------|
A|-----------------|-----------------|-----------------|------------|
E|-----------------|-----------------|-----------------|------------|

                                                        2/4
G|-----------------|-----------------|-----------------|------------|
D|-----------------|-----------------|-----------------|------------|
A|-----------------|-----------------|-----------------|------------|
E|-----------------|-----------------|-----------------|------------|

  4/4
G|-----------------|
D|-----------------|
A|-----------------|
E|-----------------|

Intro 3 -

  Guitar I
                                        2/4       4/4
G|-----------------|-----------------|---------|-----------------|
D|-----------------|-----------------|---------|-----------------|
A|-----------------|--/7---7-5-------|---------|--/7---7-5-------|
E|-6-6-5---6-6-5---|-x-----------7---|-6-6-5---|-x-----------7---|

                                      2/4       4/4
G|-----------------|-----------------|---------|-----------------|
D|-----------------|-----------------|---------|-----------------|
A|-----------------|--/7---7-5-------|---------|--/7---7-5-------|
E|-6-6-5---6-6-5---|-x-----------7---|-6-6-5---|-x-----------7---|

                                      2/4       4/4
G|-----------------|-----------------|---------|-----------------|
D|-----------------|-----------------|---------|-----------------|
A|-----------------|--/7---7-5-------|---------|--/7---7-5-------|
E|-6-6-5---6-6-5---|-x-----------7---|-6-6-5---|-x-----------7---|

                                      2/4       4/4
G|-----------------|-----------------|---------|-----------------|
D|-----------------|-----------------|---------|-----------------|
A|-----------------|--/7---7-5-------|---------|--/7---7-5-------|
E|-6-6-5---6-6-5---|-x-----------7---|-6-6-5---|-x-----------7---|


Guitar Solo 1 -
                                      2/4       4/4
G|-----------------|-----------------|---------|-----------------|
D|-----------------|-----------------|---------|-----------------|
A|-----------------|---7-----7---7---|---------|-----------------|
E|-6-6-5---6-6-5---|-x-0---0-------00|-2-3-0---|-x-5---x-5---5-00|

                                      2/4       4/4
G|-----------------|-----------------|---------|-----------------|
D|-----------------|-----------------|---------|-----------------|
A|---------3-2-----|---7-----7---7---|---------|-----------------|
E|-2-3-5-55----5---|-x-----0-------00|-2-3-0---|-x-5---x-5---5-00|


Pre Verse 1 -
                                      2/4       4/4
G|-----------------|-----------------|---------|-----------------|
D|-----------------|-----------------|---------|-----------------|
A|-3-332-----------|--/7---7-5-------|---------|--/7---7-5-------|
E|-------001-1-0---|-x-----------7---|-6-6-5---|-x-----------7---|

                                      2/4       4/4
G|-----------------|-----------------|---------|-----------------|
D|-----------------|-----------------|---------|-----------------|
A|-----------------|--/7---7-5-------|---------|--/7---7-5-------|
E|-6-6-5---6-6-5---|-x-----------7---|-6-6-5---|-x-----------7---|

                                      2/4       4/4
G|-----------------|-----------------|---------|-----------------|
D|-----------------|-----------------|---------|-----------------|
A|-----------------|-----------------|---------|-----------------|
E|-6-6-5---3-3-2---|-0-0---x-0---0---|-0-0-1---|-1-0---x-0---0---|

                                      2/4       4/4
G|-----------------|-----------------|---------|-----------------|
D|-----------------|-----------------|---------|-----------------|
A|-----------------|-----------------|---------|-----------------|
E|-6-6-5---6-6-5---|-5-0---x-0---0---|-0-0-1---|-1-0---x-0---0---|


G|-----------------|
D|-----------------|
A|-----------------|
E|-6-6-5---5-6-6---|


Verse 1 -
                    2/4       4/4
G|-----------------|---------|-----------------|-----------------|
D|-----------------|---------|-----------------|-----------------|
A|---7-----7---7---|---------|---7-----7---7---|-----------------|
E|-0---0-0---------|-0-0-1---|-0-0-0-0-0---0---|-6-6-5---6-6-5---|

                    2/4       4/4
G|-----------------|---------|-----------------|-----------------|
D|-----------------|---------|-----------------|-----------------|
A|---7-----7---7---|---------|---7-----7---7---|-----------------|
E|-0---0-0---------|-0-0-1---|-0---0-0-0-0-0---|-6-6-5---5-6-6---|

                    2/4       4/4
G|-----------------|---------|-----------------|-----------------|
D|-----------------|---------|-----------------|-----------------|
A|---7-----7---7---|---------|---7-----7---7---|-----------------|
E|-0---0-0---------|-0-0-1---|-0-0-0-0-0-0-0---|-6-6-5---6-6-5---|

                    2/4       4/4
G|-----------------|---------|-----------------|-----------------|
D|-----------------|---------|-----------------|-----------------|
A|---7-7---7---7---|---------|---7-----7---7---|-----------------|
E|-0-----0---------|-0-0-1---|-0-0-0-0-0---0---|-6-6-5---6-6-5---|


G|-----------------|
D|-----------------|
A|---7-7-----5-5---|
E|-0-----0-0-----3-|


Pre Chorus 1 -

G|-----------------|-----------------|-----------------|-----------------|
D|-----------------|-----------------|-----------------|-----------------|
A|-----------------|-----------------|-----------------|-----------------|
E|-2---2-2-2-2-2-2-|-3-2-0/3----/3---|-2---2-2-2-2-2-2-|-3-2-0/3----/3---|


G|-----------------|-----------------|-----------------|-----------------|
D|-----------------|-----------------|-----------------|-5---------------|
A|-----------------|-----------------|-----------------|-----5--------023|
E|-2---2-2-2-2-2-2-|-3-2-0/3-----5-\-|-2---2-2-2-2-2---|---------5-------|
                                                                      [3]

G|-----------------|-----------------|-----------------|-----------------|
D|-----------------|-----------------|-----------------|-----------------|
A|-----------------|-----------------|-----------------|-----------------|
E|-2---2-2-2-2-2-2-|-3-2-0/3----/3---|-2---2-2-2-2-2-2-|-3-2-0/3----/3---|


G|-----------------|-----------------|-----------------|-----------------|
D|-----------------|-----------------|-----------------|-----------------|
A|-----------------|-----------------|-----------------|-------------3---|
E|-2---2-2-2-2-2-2-|-3-2-0/3-----5-\-|-2---2-2-2-2-2---|-3---------------|
 |
 |Guitar II
G|-----------------|-----------------|-----------------|-----------------|
D|-----------------|-----------------|-----------------|-----------------|
A|-----------------|-----------------|-----------------|-----------------|
E|-----------------|-----------------|-----------------|-----------------|
B|-----------------|-----------------|-----------------|-------------1---|

G|-----------------|
D|-----------------|
A|-3---------------|
E|------------/8---|
 |
G|-----------------|
D|-----------------|
A|-----------------|
E|-----------------|
B|-1---------------|


Chorus 1 -

  Guitar I
G|-----------------|-----------------|-----------------|-----------------|
D|-----------------|-----0-----------|-----------------|-----------------|
A|-----------------|-----------------|-----------------|-----------------|
E|-0---0-0-0-0-0-0-|-1-0--/1----/1---|-5---5-5-5-3-5---|-7-----7-7-5-7---|


G|-----------------|-----------------|-----------------|-----------------|
D|-----------------|-----------------|-----0-----------|-----------------|
A|-----------------|-----------------|-----------------|-----------------|
E|-8---8-7-5-3-1---|-0---0-0-0-0-0-0-|-1-0--/1----/1---|-5-----5-5-3-5-5-|


G|-----------------|-----------------|-----------------|-----------------|
D|-----------------|-----------------|-----0-----------|-----------------|
A|-----------------|-----------------|-----------------|-----------------|
E|-7-5-7---8-7-1---|-0---0-0-0-0-0-0-|-1-0--/1----/1---|-5-----5-5-3-5---|


G|-----------------|-----------------|-----------------|-----------------|
D|-----------------|-----------------|-----------------|-----------------|
A|-----------------|-------------5---|-3---3-3-3-------|-----------------|
E|-7---7-7-7-8-7-5-|-3---3-3-5-3-----|-----------0-5-3-|-1-----------1///|


Pre Verse 2 -
                                      2/4       4/4
G|-----------------|-----------------|---------|-----------------|
D|-----------------|-----------------|---------|-----------------|
A|-----------------|--/7---7-5-------|---------|--/7---7-5-------|
E|-6-6-5---6-6-5---|-x-----------7---|-6-6-5---|-x-----------7---|

                                      2/4       4/4
G|-----------------|-----------------|---------|-----------------|
D|-----------------|-----------------|---------|-----------------|
A|-----------------|--/7---7-5-------|---------|--/7---7-5-------|
E|-6-6-5---6-6-5---|-x-----------7---|-6-6-5---|-x-----------7---|

                                      2/4       4/4
G|-----------------|-----------------|---------|-----------------|
D|-----------------|-----------------|---------|-----------------|
A|-----------------|-----------------|---------|-----------------|
E|-6-6-5---3-3\2---|-0-0---0-0---0---|-0-0-1-1-|-1-0---0-0---0---|

                                      2/4       4/4
G|-----------------|-----------------|---------|-----------------|
D|-----------------|-----------------|---------|-----------------|
A|-----------------|-----------------|---------|-----------------|
E|-6-6-5---6-6-5-5-|-5-0---x-0---0---|-0-0-1---|-1-0---x-0---0---|


G|-----------------|
D|-----------------|
A|-----------------|
E|-6-6-5---5-6-6---|


Verse 2 -
                    2/4       4/4
G|-----------------|---------|-----------------|-----------------|
D|-----------------|---------|-----------------|-----------------|
A|---7-7---7---7---|---------|---7-----7---7---|-----------------|
E|-0-----0---------|-0-0-1---|-0-0-0-0-0-0-0---|-6-6-5---6-6-5---|

                    2/4       4/4
G|-----------------|---------|-----------------|-----------------|
D|-----------------|---------|-----------------|-----------------|
A|---7-----7---7---|---------|---7-----7---7---|------------(6)--|
E|-0-0-0-0-----0---|-0-0-1---|-0-0-0-0-0-0-0---|-6-6-5---5-6-6---|

                    2/4       4/4
G|-----------------|---------|-----------------|-----------------|
D|-----------------|---------|-----------------|-----------------|
A|---7-----7---7---|---------|---7-----7---7---|-----------------|
E|-0---0-0-----0---|-0-0-1---|-0-0-0-0-0-0-0---|-6-6-5---6-6-5---|

                    2/4       4/4
G|-----------------|---------|-----------------|-----------------|
D|-----------------|---------|-----------------|-----------------|
A|---7-----7---7---|---------|---7-----7---7---|-----------------|
E|-0---0-0---------|-0-0-1---|-0---0-0-0-0-0---|-6-6-5---6-6-5---|


G|-----------------|
D|-----------------|
A|---7-7-----5-5---|
E|-0-----0-0-----3-|


Pre Chorus 2 -

G|-----------------|-----------------|-----------------|-----------------|
D|-----------------|-----------------|-----------------|-----------------|
A|-----------------|-----------------|-----------------|-----------------|
E|-2---2-2-2-2-2-2-|-3-2-0/3----/3---|-2---2-2-2-2-2-2-|-3-2-0/3----/3---|


G|-----------------|-----------------|-----------------|-----------------|
D|-----------------|-----------------|-----------------|-5---------------|
A|-----------------|-----------------|-----------------|-----5--------023|
E|-2---2-2-2-2-2-2-|-3-2-0/3-----5-\-|-2---2-2-2-2-2-2-|---------5-------|
                                                                      [3]

G|-----------------|-----------------|-----------------|-----------------|
D|-----------------|-----------------|-----------------|-----------------|
A|-----------------|-----------------|-----------------|-----------------|
E|-2---2-2-2-2-2-2-|-3-2-0/3----/3---|-2---2-2-2-2-2-2-|-3-2-0/3----/3---|


G|-----------------|-----------------|-----------------|-----------------|
D|-----------------|-----------------|-----------------|-----------------|
A|-----------------|-----------------|-----------------|-------------3---|
E|-2---2-2-2-2-2-2-|-3-2-0/3-----5-\-|-2---2-2-2-2-2-2-|-3---------------|
 |
 |Guitar II
G|-----------------|-----------------|-----------------|-----------------|
D|-----------------|-----------------|-----------------|-----------------|
A|-----------------|-----------------|-----------------|-----------------|
E|-----------------|-----------------|-----------------|-----------------|
B|-----------------|-----------------|-----------------|-------------1---|

G|-----------------|
D|-----------------|
A|-3---------------|
E|----------/5-7-8-|
 |
G|-----------------|
D|-----------------|
A|-----------------|
E|-----------------|
B|-1---------------|

Chorus 2 -

  Guitar I
G|-----------------|-----------------|-----------------|-----------------|
D|-----------------|-----0-----------|-----------------|-----------------|
A|-----------------|-----------------|-----------------|-----------------|
E|-0---0-0-0-0-0-0-|-1-0--/1----/1---|-5---5-5-5-3-5---|-7---7-7-7-5-7---|


G|-----------------|-----------------|-----------------|-----------------|
D|-----------------|-----------------|-----0-----------|-----------------|
A|-----------------|-----------------|-----------------|-----------------|
E|-8---7-7-5-3-1---|-0---0-0-0-0-0-0-|-1-0--/1----/1---|-5-----5-5-3-5---|


G|-----------------|-----------------|-----------------|-----------------|
D|-----------------|-----------------|-----0-----------|-----------------|
A|-----------------|-----------------|-----------------|-----------------|
E|-7---7-8-5-3-1---|-0---0-0-0-0-0-0-|-1-0--/1----/1-3-|-5---5-5-5-3-5---|


G|-----------------|-----------------|-----------------|-----------------|
D|-----------------|-----------------|-----------------|-----------------|
A|-------------5---|-------------5---|-3-----3-3-5-3---|-----------------|
E|-7---7-5-7-8---8-|-3---3-3-5-x-----|---------------5-|-1------------///|


Bridge -
                                      2/4       4/4
G|-----------------|-----------------|---------|-----------------|
D|-----------------|-----------------|---------|-----------------|
A|-----------------|--/7---7-5-------|---------|--/7---7-5-------|
E|-6-6-5---6-6-5---|-x-----------7---|-6-6-5---|-x-----------7---|

                                      2/4       4/4
G|-----------------|-----------------|---------|-----------------|
D|-----------------|-----------------|---------|-----------------|
A|-----------------|--/7---7-5-------|---------|--/7---7-5-------|
E|-6-6-5---6-6-5---|-x-----------7---|-6-6-5---|-x-----------7---|

                                      3/4
G|-----------------|-----------------|-------------|
D|-----------------|-----------------|-------------|
A|-----------------|-----------------|-------------|
E|-6-------6-5-----|-6-5-4-------6-5-|-4-3---------|

  4/4
G|-----------------|-----------------|-----------------|-----------------|
D|-----------------|-------0---------|-3---2---0-------|-2-0-----0-------|
A|-1-0-----0-------|-----------------|-------------3---|-----3-2---------|
E|-----3-1---3-1-0-|-3-1-0---1-0-----|-----------------|-----------3-2-1-|


G|-----------------|--------------------|
D|-----------------|--------------------|
A|-----------------|--------------------|
E|-0---------------|/12-11-10-8-7-5-3-2-|


Guitar Solo 2A -

G|-----------------|-----------------|-----------------|-----------------|
D|-----------------|-----------------|-----------------|-----------------|
A|-----------------|-----------------|-----------------|-----------------|
E|-0---0-0-0-0-0-0-|-1-0-0/1----/1---|-0---0-0-0-0-0-0-|-1-0-0/1----/1---|


G|-----------------|-----------------|-----------------|-0h5h7---------------|
D|-----------------|-----------------|-----------------|------0h5h7----------|
A|-----------------|-----------------|-----------------|-----------0h5h70h2h3|
E|-0---0-0-0-0-0-0-|-1-0-0/1----/3---|-0---0-0-0-0-0-0-|---------------------|
                                                         | 3 || 3 || 3 || 3 ||

G|-----------------|-----------------|-----------------|-----------------|
D|-----------------|-----------------|-----------------|-----------------|
A|-----------------|-----------------|-----------------|-----------------|
E|-0---0-0-0-0-0-0-|-1-0-0/1----/1---|-0---0-0-0-0-0-0-|-1-0-0/1----/1---|

                                                             Play twice
G|-----------------|-----------------|-----------------|-0h5h7---------------|
D|-----------------|-----------------|-----------------|------0h5h7----------|
A|-----------------|-----------------|-----------------|-----------0h5h70h2h3|
E|-0---0-0-0-0-0-0-|-1-0-0/1----/3---|-0---0-0-0-0-0-0-|---------------------|
                                                         | 3 || 3 || 3 || 3 ||

Guitar Solo 2B -
                                      2/4       4/4               2/4
G|-----------------|-----------------|---------|-----------------|---------|
D|-----------------|-----------------|---------|-----------------|---------|
A|-3-3-2---3-3-2---|-----------------|---------|-----------------|---------|
E|-----------------|-x-2---0-2---2---|-0-2-3---|-x-2---0-2---2-0-|-0-0-3---|

  4/4               2/4       4/4
G|-----------------|---------|-----------------|
D|-----------------|---------|-----------------|
A|-----------------|---------|-----------------|
E|-0-2---0-2---2---|-0-2-3---|-0-2---0-2---2--/|

                                      2/4       4/4               2/4
G|-----------------|-----------------|---------|-----------------|---------|
D|-----------------|-----------------|---------|-----------------|---------|
A|-----------------|-----------------|---------|-----------------|---------|
E|-8-8-7---8-8-7---|-x-2---0-2---2---|-0-2-3---|-x-2---0-2---2-0-|-0-0-3---|

  4/4               2/4       4/4
G|-----------------|---------|-----------------|
D|-----------------|---------|-----------------|
A|-----------------|---------|-----------------|
E|-0-2---x-2---2---|-0-2-3---|-0-2---x-2---2--/|


G|-----------------|-----------------|-----------------|-----------------|
D|-----------------|-----------------|-----------------|-----------------|
A|-----------------|---7-7-----5-5---|---7-7-----5-5---|---5-5-----3-3---|
E|-8-8-7---8-8-7---|-0-----0-0-----3-|-0-----0-0-----3-|-0-----0-0-----1-|


G|-----------------|-----------------|
D|-----------------|-----------------|
A|---3-3-----2-2---|-----------------|
E|-0-----0-0-----3-|-0---------------|


Bridge -
                    2/4       4/4
G|-----------------|---------|-----------------|-----------------|
D|-----------------|---------|-----------------|-----------------|
A|---7-----7---7---|---------|---7-----7---7---|-----------------|
E|-0---0-0---------|-0-0-1---|-0-0-0-0-0---0---|-6-6-5---6-6-5---|

                    2/4       4/4
G|-----------------|---------|-----------------|-----------------|
D|-----------------|---------|-----------------|-----------------|
A|---7-7---7---7---|---------|---7-----7---7---|-----------------|
E|-0---0-0---------|-0-0-1---|-0---0-0-0-0-0---|-6-6-5---5-5/6---|

                    2/4       4/4
G|-----------------|---------|-----------------|-----------------|
D|-----------------|---------|-----------------|-----------------|
A|---7-----7---7---|---------|---7-----7---7---|-----------------|
E|-0---0-0---------|-0-0-1---|-0-0-0-0-0-0-0---|-6-6-5---6-6-5---|

                    2/4       4/4
G|-----------------|---------|-----------------|-----------------|
D|-----------------|---------|-----------------|-----------------|
A|---7-7---7---7---|---------|---7-----7---7---|-----------------|
E|-0-0-0-0-0---0---|-0-0-1---|-0-0-0-0-0---0---|-6-6-5---6-6-5---|

                                                        3/4
G|-----------------|-----------------|-----------------|-------------|
D|-----------------|-----------------|-----------------|-------------|
A|-----------------|-----------------|-----4-----------|-------------|
E|-5-5-3---5-5-3---|-3-3-2---3-3-2---|-2-2-2---2-2-2---|-1-1-1-1-1-0-|


Interlude -

G|-------------|-------------|-------------|-------------|-----------3-|
D|-------------|-------------|-------------|-------------|-------------|
A|-7---7---7---|-5-5-5---5---|-3-3-3---3---|-2-2-2---2-0-|-1-1-1-1-1---|
E|---0-------0-|-------5---5-|-----------3-|-------0-----|-------------|


G|-------------|-------------|-------------|-------------|-------------|
D|-------------|-------------|-------------|-------------|-------------|
A|-1-----1-1-1/|-7-7-7-------|-5-5-5---5\--|-3-3-3---3---|-2-2-2---2---|
E|-------------|---------0-0-|-------5-----|-----------3-|-------0---2-|


G|-------------|-------------|-------------|-------------|-------------|
D|-------------|-------------|-------------|-------------|-------------|
A|-1-1-1---1---|-1------1-1-/|-7---7---7---|-5-5-5---5\--|-3-3-3---3---|
E|-------0---0-|-------------|---0-------0-|-------0---0-|-----------3-|


G|-------------|-------------|-------------|--9----------|-------------|
D|-------------|-------------|-------------|-------------|-------------|
A|-2-2-2-x-2---|-1-1-1-1-1---|-1-------1-1/|-7-------7---|-5-------5---|
E|-----------00|-----------0-|-------------|-------4--4-x|-------2--0-x|


G|-------------|-------------|-------------|-------------|
D|-------------|-------------|-------------|-------------|
A|-3-----3--3--|-2-----2-52--|-1-----1-1---|-1-----1-1---|
E|---------0--0|------------5|----------5-5|----------0-0|


G|-------------|-------------|-------------|-------------|-------------|
D|-------------|-------------|-------------|-------------|-------------|
A|-7---7---7---|-5----5--5---|-3-xx3---3---|-2-xx2---2---|-1-111---1---|
E|---44--4---0-|---22--2---0-|-------0---0-|-------00--0-|-------0---0-|


G|-------------|-------------|-------------|-------------|-------------|
D|-------------|-------------|-------------|-------------|-------------|
A|-1---1---1---|-7---7---7---|-5---5-5-5---|-3---3-3-3---|-2-222-2-2---|
E|---00--0---0-|---44--44--00|---33------0-|---00------00|-----------5-|


G|-------------|-------------|-------------|
D|-------------|-------------|-------------|
A|-1--11-1-1---|-1-111-1-1---|-1-111-1-1---|
E|-------------|-------------|-------------|


Pre Verse 3 -

  4/4
G|-----------------|-----------------|-------------------|-----------------|
D|-----------------|-----------------|-------------------|-----------------|
A|-7---------------|-----------------|-------------------|-----------------|
E|-0---------------|-----------------|-------------------|-----------------|

                    2/4          4/4
G|-----------------|-----------|-----------------|
D|-----------------|-----------|-----------------|
A|-----------------|-----------|-----------------|
E|-----------------|-----------|-----------------|

                                      2/4       4/4
G|-----------------|-----------------|---------|-----------------|
D|-----------------|-----------------|---------|-----------------|
A|-----------------|--/7---7-5-------|---------|--/7---7-5-------|
E|-6-6-5---6-6-5---|-x-----------7---|-6-6-5---|-x-----------7---|

                                      2/4       4/4
G|-----------------|-----------------|---------|-----------------|
D|-----------------|-----------------|---------|-----------------|
A|-----------------|--/7---7-5-------|---------|--/7---7-5-------|
E|-6-6-5---6-6-5---|-x-----------7---|-6-6-5---|-x-----------7---|


G|-----------------|
D|-----------------|
A|-----------------|
E|-6-6-5---3-3\2-5-|


Verse 3 -
                    2/4       4/4
G|-----------------|---------|-----------------|-----------------|
D|-----------------|---------|-----------------|-----------------|
A|---------7---7---|---------|---7-----7---7---|-----------------|
E|---0---0-0---0---|-0-0-1---|-0---0-0-0-0-0---|-6-6-5---6-6-5---|

                    2/4       4/4
G|-----------------|---------|-----------------|-----------------|
D|-----------------|---------|-----------------|-----------------|
A|---7-7-5-7---7---|---------|---7-----7---7---|-----------------|
E|-0-0-0---0---0---|-0-0-1---|-0-0-0-0-0-0-0---|-6-6-5---x-6-6---|

                    2/4       4/4
G|-----------------|---------|-----------------|-----------------|
D|-----------------|---------|-----------------|-----------------|
A|---7-7-5-7---7---|---------|---7---5-7-5-7---|-----------------|
E|-0-0-0-0---------|-0-0-1---|-0-0-0-0-0-0-0---|-6-6-5---6-6-5---|

                    2/4       4/4
G|-----------------|---------|-----------------|-----------------|
D|-----------------|---------|-----------------|-----------------|
A|---7-7-5-7---7---|---------|---7---5-7-5-7---|-----------------|
E|-0-0-0-0-0-------|-0-0-1---|-0-0-0-0-0-0-0---|-6-6-5---6-6-5---|


G|-----------------|-----------------|
D|-----------------|-----------------|
A|---7-7-----5-5---|---7-7-----5-5---|
E|-0-----0-0-----3-|-0-----0-0-----3-|


Pre Chorus 3 -

G|-----------------|-----------------|-----------------|-----------------|
D|-----------------|-----------------|-----------------|-----------------|
A|-----------------|-----------------|-----------------|-----------------|
E|-2---2-2-2-2-2-2-|-3-2-0/3----/3---|-2---2-2-2-2-2-2-|-3-2-0/3----/3---|


G|-----------------|-----------------|-----------------|-----------------|
D|-----------------|-----------------|-----------------|-5---------------|
A|-----------------|-----------------|-----------------|-----5--------023|
E|-2---2-2-2-2-2-2-|-3-2-0/3-----5-\-|-2---2-2-2-2-2-2-|---------5-------|
                                                                      [3]

G|-----------------|-----------------|-----------------|-----------------|
D|-----------------|-----------------|-----------------|-----------------|
A|-----------------|-----------------|-----------------|-----------------|
E|-2---2-2-2-2-2-2-|-3-2-0/3----/3---|-2---2-2-2-2-2-2-|-3-2-0/3----/3---|


G|-----------------|-----------------|-----------------|-----------------|
D|-----------------|-----------------|-----------------|-----------------|
A|-----------------|-----------------|-----------------|-------------3---|
E|-2---2-2-2-2-2-2-|-3-2-0/3-----5-\-|-2---2-2-2-2-2-2-|-3---------------|
 |
 |Guitar II
G|-----------------|-----------------|-----------------|-----------------|
D|-----------------|-----------------|-----------------|-----------------|
A|-----------------|-----------------|-----------------|-----------------|
E|-----------------|-----------------|-----------------|-----------------|
B|-----------------|-----------------|-----------------|-------------1---|

G|-----------------|
D|-----------------|
A|-3---------------|
E|------/7-8-8-8-8-|
 |
G|-----------------|
D|-----------------|
A|-----------------|
E|-----------------|
B|-1---------------|

Chorus 3 -

  Guitar I
G|-----------------|-----------------|-----------------|-----------------|
D|-----------------|-----0-----------|-----------------|-----------------|
A|-----------------|-----------------|-----------------|-----------------|
E|-0---0-0-0-0-0-0-|-1-0--/1----/1---|-5---5-5-5-3-5---|-7-----7-7-5-7---|


G|-----------------|-----------------|-----------------|-----------------|
D|-----------------|-----------------|-----0-----------|-----------------|
A|-----------------|-----------------|-----------------|-----------------|
E|-8---7-7-5-3-1---|-0---0-0-0-0-0-0-|-1-0--/1----/1---|-5-----3-5-3-5---|


G|-----------------|-----------------|-----------------|-----------------|
D|-----------------|-----------------|-----0-----------|-----------------|
A|-----------------|-----------------|-----------------|-----------------|
E|-7---8---7-5-1---|-0---0-0-0-0-0-0-|-1-0--/1----/1---|-5-----5-5-3-5---|


G|-----------------|-----------------|-----------------|-----------------|
D|-----------------|-----------------|-----------------|-----------------|
A|-----------------|-------------5---|-3-------5-3-----|-----------------|
E|-7-------7\5-5\3-|-3---3-3-5-3-----|-------------5\3-|-1------------///|


Bridge -
                                      2/4       4/4
G|-----------------|-----------------|---------|-----------------|
D|-----------------|-----------------|---------|-----------------|
A|-----------------|---7-----7---7---|---------|-----------------|
E|-6-6-5---6-6-5---|-x-0---0-0-000-0-|-2-3-0---|-5-5---5-5-555-00|

                                      2/4       4/4
G|-----------------|-----------------|---------|-----------------|
D|-----------------|-----------------|---------|-----------------|
A|---------3-2-----|---7-----777777--|---------|-----------------|
E|-3-355-55----5-5-|-0-0---0-0--0--0-|-2-3-0-0-|-5-555-5-5-5-5-5-|

                                      2/4
G|-----------------|-----------------|---------|
D|-----------------|-----------------|---------|
A|-----------------|---7------7--7---|---------|
E|-0-3-5-008-8-7---|-0-0-----00000-0-|-0-0-0---|

  4/4
G|-----------------|-----------------|-----------------|-----------------|
D|-----------------|-----------------|-----------------|-----------------|
A|-----------------|-----------------|-------------5---|-3---3-3-3-5-3---|
E|-5---5-5-5-3-5---|-7---7-5-3-7-8-5-|-3---3-3-5-3-----|---------------5-|


G|-----------------|-----------------|
D|-----------------|-----------------|
A|-----------------|-----------------|
E|-1------------///|-6-6-5---6-6-5---|


Outro -
                    2/4       4/4
G|-----------------|---------|-----------------|-----------------|
D|-----------------|---------|-----------------|-----------------|
A|---7-----7---7-7-|-7-------|-----------------|----------3-2----|
E|-0-0---0-0-000---|-0-0-3-0-|-5---5-555-5-5-0-|-2-3-5-500---5-0-|

                    2/4       4/4
G|-----------------|---------|-----------------|-----------------|
D|-----------------|---------|-----------------|-----------------|
A|-7---7---7---7---|---------|-----------------|---------3-2-----|
E|-0-0-0-0-0-----0-|-2-3-0---|-0-5---x-5---5-00|-2-3-5-0-----5---|

                    2/4       4/4
G|-----------------|---------|-----------------|-----------------|
D|-----------------|---------|-----7-----7-----|-7---------------|
A|---7-----7-----7-|-7-------|-5-5-5-5-5-5-5-5-|-5-5-7-5-----9---|
E|-0-0---0-0-000---|---0-0-0-|-----------------|---------7-----7-|

                    2/4       4/4
G|-----------------|---------|-----------------|
D|-----------------|---------|-----------------|
A|---9-----9---5\\\|---------|-----------------|
E|-7---7-7---7-----|-5---5-5-|-5-5-5-0-3-3-2---|

                    2/4       4/4
G|-----------------|---------|-----------------|-----------------|
D|-----------------|---------|-----7-----7-----|-7---------------|
A|-----7-----7-----|-7-7-----|-5-5-5-555-5-5-5-|-5-5-7-5---------|
E|-0-----0-0---0-0-|-----0-0-|-----------------|---------7---7-7-|

                    2/4       4/4
G|-----------------|---------|-----------------|-----------------|
D|-----------------|---------|-----------------|-----------------|
A|-----------------|---------|-----------------|-----------------|
E|-7-7-7-0-6-6-5---|-5---5-5-|-5-5-5-0-3-3-2---|-----------------|


G|-----------------|
D|-----------------|
A|-----------------|
E|-3-2-0-----------|





Comments


Popular Metallica tabs & chords
Bad Seed Bass Tabs
God Of Thunder Bass Tabs
Hero Of The Day Chords
Low Man's Lyric Chords
Carpe Diem Baby 2 Tabs
Damage Case Tabs
Dont Tread On Me Intro Tabs
I Disappear Tabs
Ride The Lightning Tabs
Whiplash 1 Tabs


Song lyrics



↑ Back to top | Tablatures and chords are parodies/interpretations of the original songs. You may use it for private study, scholarship, research or language learning purposes only
© 2014 AZChords.com Contact us | Privacy policy | DMCA | Add/correct tabs | Request tabs | Top 50 tabs