» » »

Meshuggah, Unanything Tabs (ver.1)

Artists:  A B C D E F G H I J K L M N O P Q R S T U V W X Y Z # 

Unanything Tabs (ver.1)

Meshuggah Tabs
 Rating:
4/5 (4 votes)
Unanything lessons Tabs too difficult? Try these video lessons and learn fast
1
                Label:	Nuclear Blast Records

Tuned Low to High: Bb,Eb,Ab,Db,Gb,Bb,Eb



Play 3 times
Guitar 1 (Dist) Let Ring...
eb|---------------------------------------------------------------|
bb|---------------------------------------------------------------|
gb|-4-------------------------------------------------------------|
Db|-2-------------------------------------------------------------|
Ab|-2-------------------------------------------------------------|
Eb|-0-------------------------------------------------------------|
Bb|---------------------------------------------------------------|
Guitar 2 (clean) Let Ring too...                                   
eb|---0-----0---------------0---------0-----0---------------0-----|
bb|-----0-----0-----0-----0---0---------0-----0-----0-----0---0---|
gb|-------3-------3-----3-------3---------3-------3-----3-------3-|
Db|-2-----------2-----4-----------4-2-----------------------------|
Ab|---------------------------------------------4-----3-----------|
Eb|---------------------------------------------------------------|
Bb|---------------------------------------------------------------|
4th time
Guitar 1 (Dist) Still Ringin'
eb|---------------------------------------------------------------|
bb|---------------------------------------------------------------|
gb|-4-------------------------------------------------7-----------|
Db|-2-------------------------------------------6-----5-----------|
Ab|-2-------------------------------------------4-----5-----------|
Eb|-0-------------------------------------------4-----3-----------|
Bb|---------------------------------------------2-----------------|
Guitar 2 (clean) Let Ring too...                                   
eb|---0-----0---------------0---------0-----0---------------0-----|
bb|-----0-----0-----0-----0---0---------0-----0-----0-----0---0---|
gb|-------3-------3-----3-------3---------3-------3-----3-------3-|
Db|-2-----------2-----4-----------4-2-----------------------------|
Ab|---------------------------------------------4-----3-----------|
Eb|---------------------------------------------------------------|
Bb|---------------------------------------------------------------|

Guitar 1 (Dist) Let Ring...
eb|---------------------------------------------------------------|
bb|---------------------------------------------------------------|
gb|-5-------------------------------------------------------------|
Db|-3-------------------------7-----------------------------------|
Ab|-3-------------------------5-----------------------------------|
Eb|-1-------------------------5-----------------------------------|
Bb|---------------------------3-----------------------------------|
Guitar 2 (clean) times Let Ring too...                                   
eb|-------1----------1--------------1----------1------------------|
bb|-----1---1------1---1----------1---1------1---1----------------|
gb|---4-------4----------4------4-------4----------4--------------|
Db|-3-----------3----------3--3-----------3----------3------------|
Ab|---------------------------------------------------------------|
Eb|---------------------------------------------------------------|
Bb|---------------------------------------------------------------|
Guitar 2 (clean) 4th time...                                   
eb|-------1----------1--------------0----------0------------------|
bb|-----1---1------1---1----------3---3------3---3----------------|
gb|---4-------4----------4------2-------2----------2--------------|
Db|-3-----------3----------3--0-----------0----------0------------|
Ab|---------------------------------------------------------------|
Eb|---------------------------------------------------------------|
Bb|---------------------------------------------------------------|
Guitars 3&4(&5 optional Ab strg harmony)(hammer-on pull-offs fast!) 
eb|---------------------------------------------------------------|
bb|---------------------------------------------------------------|
gb|-7h8p7--5-3----------------7h8p7--5-1-5------------------------|
Db|-7h9p7--5-4----------------7h9p7--5-2-5------------------------|
Ab|---------------------------------------------------------------|
Eb|---------------------------------------------------------------|
Bb|---------------------------------------------------------------|

eb|-----------------------------------|---------------------------|
bb|-----------------------------------|-solo ending---------------|
gb|-----------------------------------|---------------------------|
Db|-7h9p7--5-4-----------5----12-9-14-|-13~-----------------------|
Ab|-----------------------------------|---------------------------|
Eb|-----------------------------------|---------------------------|
Bb|-----------------------------------|---------------------------|

Repeat everything above once and thats the song.
            
Submit corrections

comments powered by Disqus
↑ Back to top | Meshuggah Tabs for Unanything. Lyrics for acoustic guitar and electric guitar. 1 Tablatures and chords are parodies/interpretations of the original songs. You may use it for private study, scholarship, research or language learning purposes only