» » »

Meshuggah, Suffer In Truth Tabs (ver.1)

Artists:  A B C D E F G H I J K L M N O P Q R S T U V W X Y Z # 

Suffer In Truth Tabs (ver.1)

Meshuggah Tabs
 Rating:
4/5 (4 votes)
Suffer In Truth lessons Tabs too difficult? Try these video lessons and learn fast
1
                Suffer In Truth 

p=palm mute (muted picking) 
/ or \=slide 
Tuning: B-flat, E-flat, A-flat, D-flat, F, B-flat 
riff 1 0.00 
|---x4---------------------------| 
|--------------------------------| 
|33333333333333333333333333333333| 
|22222222222222222222222233333333| 
|11111111111111111111111111111111| 
|--------------------------------| 

riff 2 0.25, 0.37 Tortured soul... 
|--------------------------------| 
|--------------------------------| 
|--------------------------------| 
|4------5-5-5----4------5-5-5-5--| 
|44444445555555554444444555555555| 
|22222223333333332222222333333333| 
|-pppppp-p-p-pppp-pppppp-p-p-p-pp| 

riff 3 1.02 
|--------------------------------| 
|--------------------------------| 
|--------------------------------| 
|444----4-4---44-333----3-3---33-| 
|222----2-2---22-111----1-1---11-| 
|---0000---000--0---0000---000--0| 
|---pppp---ppp--p---pppp---ppp--p| 

riff 2 1.14 Penetrate through... 

riff 4 1.26 
|--------------------------------| 
|--------------------------------| 
|33333333333333333333333333333333| 
|22222222222222222222222222222222| 
|11111111111111111111111111111111| 
|--------------------------------| 

riff 1 1.32 Contaminated life is... 

riff 5 1.51 
|-----x2---------------------------------------------------------| 
|----------------------------------------------------------------| 
|----------------------------------------------------------------| 
|----------------------------------------------------------------| 
|2222222-----2222222-----2222222-----2222222-----2222222-2---2---| 
|0000000-----0000000-----0000000-----0000000-----0000000-0---0---| 
|ppppppp-----ppppppp-----ppppppp-----ppppppp-----ppppppp-p---p---| 

riff 6 2.03 Suffer in truth! 
|-----x4---------------------------------------------------------| 
|----------------------------------------------------------------| 
|----------------------------------------------------------------| 
|--------------------------------------------------------4\3-3---| 
|2222222-----2222222-----2222222-----2222222-----2222222-2\1-1---| 
|0000000-----0000000-----0000000-----0000000-----0000000---------| 
|ppppppp-----ppppppp-----ppppppp-----ppppppp-----ppppppp---------| 

riff 7 2.27 
|----------------------------------------------------------------| 
|----------------------------------------------------------------| 
|----------------------------------------------------------------| 
|------4---4-------------------3---3---------------------3---3---| 
|------2---2-------------------1---1---------------------1---1---| 
|000000------0000000-0-0-000000------0000000-0-0-00000000--------| 
|pppppp------ppppppp-p-p-pppppp------ppppppp-p-p-pppppppp--------| 

riff 8 2.50 The wounds of a soul... 
|-------------------------| 
|-------------------------| 
|-------------------------| 
|-2-----2-----0-----2-----| 
|-2-----1-----2-----1-----| 
|(0)---(0)---(0)---(0)----| 

riff 1 3.14 I see... 

riff 6 3.39
            
Submit corrections

comments powered by Disqus
↑ Back to top | Meshuggah Tabs for Suffer In Truth. Lyrics for acoustic guitar and electric guitar. 1 Tablatures and chords are parodies/interpretations of the original songs. You may use it for private study, scholarship, research or language learning purposes only