>
 >
Nebulous

Nebulous Guitar Tabs

Meshuggah - Nebulous chords, tabs, tablatures, lyrics

Guitar lessons | Add/correct | Request | Top 50 tabs Artists:  A B C D E F G H I J K L M N O P Q R S T U V W X Y Z 0-9

Nebulous Guitar Tabs – Meshuggah

CD, Sheet music, Poster

Do you like Nebulous? Share with your friends now
Tabs
guitar - (tararar?)



   0:00(2x)                                                                      
A#||--------------|----------------|----------------|-------------------|
F#||--------------|----------------|----------------|-------------------|
C#||--------------|----------------|----------------|-------------------|
G#||--------------|----------------|----------------|-------------------|
D#||--2-----------|--3-------------|--2-------------|--3----------------|
A#||--------------|----------------|----------------|-------------------|
D#||-----2--1--0--|-----3--2--1----|-----2--1--0----|-----3--2--1--2----|


                                                                        2x
|--------------|----------------|----------------|----------------------||
|--------------|----------------|----------------|----------------------||
|--------------|----------------|----------------|----------------------||
|--------------|----------------|----------------|----------------------||
|--2-----------|--3-------------|--2-------------|--3-------------------||
|--------------|----------------|----------------|----------------------||
|-----2--1--0--|-----3--2--1----|-----2--1--0----|-----3--2--1----2-----||


                       0:39(2x)                                               3x
-----------------|----|---------||---------------|----------------------------||
-----------------|----|---------||---------------|----------------------------||
-----------------|----|---------||---------------|----------------------------||
-----------------|----|---------||---------------|----------------------------||
--2--------------|----|---------||---------------|----------------------------||
-----------------|----|---------||---------------|----------------------------||
-----3--2--1--1--|----|--2b-----||--1--2b---2b---|--1--2b---2b-----2b---2b----||
           ....                     .               . 

              1:18                                                 
--------|----|--------------------|---------------------------|
--------|----|--------------------|---------------------------|
--------|----|--------------------|---------------------------|
--------|----|--------------------|---------------------------|
--------|----|--------------------|---------------------------|
--------|----|--1-----------------|--3------------------------|
--1--1--|----|-------2--4b-----2--|-------2--4b---4b-----2----|
  ....

                                                                       1:37     
--------------------|---------------------------|--------------------|-----|
--------------------|---------------------------|--------------------|-----|
--------------------|---------------------------|--------------------|-----|
--------------------|---------------------------|--------------------|-----|
--------------------|---------------------------|--------------------|-----|
--1-----------------|---------------------------|--1-----------------|--3--|
-------2--4b-----2--|--4b---2--4b---4b-----2----|-------2--4b-----2--|-----|


                                                            3x  1:57             
----|---------||---------------|----------------------------||--------|----|
----|---------||---------------|----------------------------||--------|----|
----|---------||---------------|----------------------------||--------|----|
----|---------||---------------|----------------------------||--------|----|
----|---------||---------------|----------------------------||--------|----|
----|---------||---------------|----------------------------||--------|----|
----|--2b-----||--1--2b---2b---|--1--2b---2b-----2b---2b----||--1--1--|----|
                  .               .                             ....

                                                               3x  2:16      
-----||------------|------------|------------|------------------||-------|
-----||------------|------------|------------|------------------||-------|
-----||------------|------------|------------|------------------||-------|
-----||------------|------------|------------|------------------||-------|
-----||------------|------------|------------|------------------||-------|
-----||--2---------|------------|--2---------|------------------||--2----|
--0--||-------0----|--2----0----|-------0----|--2----2----0-----||-------|


                                         2x                           2x
------|-----||---------------------------||---------------------------||
------|-----||---------------------------||---------------------------||
------|-----||---------------------------||---------------------------||
------|-----||---------------------------||---------------------------||
------|-----||-------4-------------4-----||-------3-------------3-----||
------|-----||---------------------------||---------------------------||
------|--0--||--0--------0----0----------||--0--------0----0----------||


                           2x                           
---------------------------||--------------------------|
---------------------------||--------------------------|
---------------------------||--------------------------|
---------------------------||--------------------------|
-------4-------------4-----||-------4-------------3----|
---------------------------||--------------------------|
--0--------0----0----------||--0--------0----0---------|


                                              2:36(2x)(light pm...              
--------------------------|------------|------|----------|
--------------------------|------------|------|----------|
--------------------------|------------|------|--5--5----|
--------------------------|------------|------|--6--6----|
-------3-------------3----|-------3----|------|--4--4----|
--------------------------|------------|------|--5--5----|
--0--------0----0---------|--0---------|------|----------|


 i think..........    )8x        3:35(2x)                         2x
|----------------------||------|-----||---------------------------||
|----------------------||------|-----||---------------------------||
|--5----5--------5-----||------|-----||---------------------------||
|--6----6--------6-----||------|-----||---------------------------||
|--4----4--------4-----||------|-----||-------4-------------4-----||
|--5----5--------5-----||------|-----||---------------------------||
|----------------------||------|--0--||--0--------0----0----------||


                           2x                           2x
---------------------------||---------------------------||
---------------------------||---------------------------||
---------------------------||---------------------------||
---------------------------||---------------------------||
-------3-------------3-----||-------4-------------4-----||
---------------------------||---------------------------||
--0--------0----0----------||--0--------0----0----------||


                                                                   
--------------------------|--------------------------|------------|
--------------------------|--------------------------|------------|
--------------------------|--------------------------|------------|
--------------------------|--------------------------|------------|
-------4-------------3----|-------3-------------3----|-------3----|
--------------------------|--------------------------|------------|
--0--------0----0---------|--0--------0----0---------|--0---------|


 4:15                                                   2x         
--------------||--------------|-------------------------||--------|
--------------||--------------|-------------------------||--------|
--------------||--------------|-------------------------||--------|
--------------||--16~---------|--16~--------------------||--16~---|
--------------||--------15----|----------15-------------||--------|
--------------||--------------|------------------14-----||--------|
--0--0~~~~~~--||--------------|-------------------------||--------|


                                  2x                 
|------------|--------------------||----------------|
|------------|--------------------||----------------|
|------------|--------------------||----------------|
|------------|--------------------||----------------|
|-------3----|---------3----------||----------------|
|------------|--------------2-----||----------------|
|--0---------|--0-----------------||--9------6------|


                                                          2x  5:11                 
|---------------------------|-----------------------------||----------------|
|---------------------------|-----------------------------||----------------|
|---------------------------|------------------------11---||----------------|
|-----7--7--9--9--10--10----|-----7--7--9--9--10--9-------||----------------|
|---------------------------|------------------------9----||----------------|
|-----5--5/-7--7/-8---8-----|-----5--5/-7--7/-8---7-------||----------------|
|--0------------------------|--0--------------------------||--9------6------|


                                                                      
--------------------|---------------------------|--------------------|
--------------------|---------------------------|--------------------|
--------------------|---------------------------|--------------------|
--------------------|---------------------------|--------------------|
--------------------|---------------------------|--------------------|
--1-----------------|--3------------------------|--1-----------------|
-------2--4b-----2--|-------2--4b---4b-----2----|-------2--4b-----2--|


                             5:29                                                 
---------------------------||--------------------|---------------------------|
---------------------------||--------------------|---------------------------|
---------------------------||--------------------|---------------------------|
---------------------------||--------------------|---------------------------|
---------------------------||--------------------|---------------------------|
---------------------------||--1-----------------|--3----1-------------------|
--4b---2--4b---4b-----2----||-------2--4b-----2--|------------2--4b-----2----|


                                                                            99x
---------------------------|--------------------|----------------------------||
---------------------------|--------------------|----------------------------||
---------------------------|--------------------|----------------------------||
---------------------------|--------------------|----------------------------||
---------------------------|--------------------|----------------------------||
--3------------------------|--1-----------------|----------------------------||
-------2--4b---4b-----2----|-------2--4b-----2--|--4b---2--4b---4b-----2-----||


               
------|------||
------|------||
------|------||
------|------||endead 
------|------||
------|------||
------|------||


this song is not a "сиськи" this song about transistor...(easy tab for hard understanding)





Comments


Popular Meshuggah tabs & chords
Beneath Bass Tabs
The Exquisite Machinery Of Torture 2 Bass Tabs
Bleed Intro Tabs
Cadaverous Mastication Tabs
Catatonic Transfixions Tabs
Corridor Of Chameleons Tabs
Gods Of Rapture Tabs
Ritual Tabs
Soul Burn Tabs
Stengah Tabs


Song lyrics



↑ Back to top | Tablatures and chords are parodies/interpretations of the original songs. You may use it for private study, scholarship, research or language learning purposes only
© 2014 AZChords.com Contact us | Privacy policy | DMCA | Add/correct tabs | Request tabs | Top 50 tabs