>
 >
Humiliative

Humiliative Bass Tabs

Meshuggah - Humiliative chords, tabs, tablatures, lyrics

Guitar lessons | Add/correct | Request | Top 50 tabs Artists:  A B C D E F G H I J K L M N O P Q R S T U V W X Y Z 0-9

Humiliative Bass Tabs – Meshuggah

CD, Sheet music, Poster

Do you like Humiliative? Share with your friends now
Bass TabsTabs
TUNE DOWN (5 string)

F#||-------------------------|----------------------|----------------------|
C#||*------------------------|----------------------|----------------------|
G#||-------------------------|----------------------|----------------------|
D#||*------------------------|----------------------|----------------------|
A#||---3-3-------2-2--2-2----|--------2-2-------2-2-|---2-2----------2-2---|


                                                                          
-----------------------||-------------------------|----------------------|
----------------------*||*------------------------|----------------------|
-----------------------||-------------------------|----------------------|
----------------------*||*------------------------|----------------------|
------2-2--2-2---------||---3-3-------2-2--2-2----|--------2-2-------2-2-|


                                                                             
----------------------|-----------------------||----------------------------|
----------------------|----------------------*||----------------------------|
----------------------|-----------------------||----------------------------|
----------------------|----------------------*||-----------------------2----|
---2-2----------2-2---|------2-2--2-2---------||------2-2--2-2------2-------|


                                                      
--------------------------|--------------------------|
--------------------------|--------------------------|
--------------------------|--------------------------|
--1--2--1--0--0--1--2--1--|--0--0--1--2--1--0--0--1--|
--------------------------|--------------------------|


                                                      
--------------------------|--------------------------|
--------------------------|--------------------------|
--------------------------|--------------------------|
--2--1--0--0--1--2--1--0--|--0--1--2--1--0--0--1--2--|
--------------------------|--------------------------|


                                                           
-------------------------------|--------------------------|
-------------------------------|--------------------------|
-------------------------------|--------------------------|
--1--0--0--1--2--1--0--0--1----|--1--2--1--0--0--1--2--1--|
-------------------------------|--------------------------|


                                                      
--------------------------|--------------------------|
--------------------------|--------------------------|
--------------------------|--------------------------|
--0--0--1--2--1--0--0--1--|--2--1--0--0--1--2--1--0--|
--------------------------|--------------------------|


                                                      
--------------------------|--------------------------|
--------------------------|--------------------------|
--------------------------|--------------------------|
--0--1--2--1--0--0--1--2--|--1--0--0--5--0--1--0--0--|
--------------------------|--------------------------|


                                                        
|---------------------------|--------------------------|
|*--------------------------|--------------------------|
|---------------------------|--------------------------|
|*--1--2--1--0--0--1--2--1--|--0--0--1--2--1--0--0--1--|
|---------------------------|--------------------------|


                                                      
--------------------------|--------------------------|
--------------------------|--------------------------|
--------------------------|--------------------------|
--2--1--0--0--1--2--1--0--|--0--1--2--1--0--0--1--2--|
--------------------------|--------------------------|


                           2x                                                  
---------------------------||--------------------------|----------------------|
--------------------------*||--------------------------|----------------------|
---------------------------||--------------------------|----------------------|
--1--0--0--1--2--1--0--0--*||--1--2--1--0--0--1--------|----------------------|
---------------------------||--------------------1--0--|--1----1--0--------2--|


                                                                  
---------------------|----------------------|--------------------|
---------------------|----------------------|--------------------|
---------------------|----------------------|--------------------|
---------------------|----------------------|--------------------|
--1--------3--2------|----2--3--------1--2--|--------0--1--------|


                                                                   
----------------------|---------------------|---------------------|
----------------------|---------------------|---------------------|
----------------------|---------------------|---------------------|
----------------------|---------------------|---------------------|
--1--0--------2--1----|------3--2--------2--|--3--------1--2------|


                                                                    
----------------------|----------------------|---------------------|
----------------------|----------------------|---------------------|
----------------------|----------------------|---------------------|
----------------------|----------------------|---------------------|
----0--1--------1--0--|--1----1--0--------2--|--1--------3--2------|


                                                                   
----------------------|--------------------|----------------------|
----------------------|--------------------|----------------------|
----------------------|--------------------|----------------------|
----------------------|--------------------|----------------------|
----2--3--------1--2--|--------0--1--------|--1--0--------2--1----|


                                                                   
---------------------|---------------------|----------------------|
---------------------|---------------------|----------------------|
---------------------|---------------------|----------------------|
---------------------|---------------------|----------------------|
------3--2--------2--|--3--------1--2------|----0--1--------1--0--|


                          6x                                           
|-------------------------||---------------------|--------------------|
|*-----------------------*||---------------------|--------------------|
|-------------------------||---------------------|--------------------|
|*-----------------------*||---------------------|--------------------|
|---1----1--0------1--0---||--1----1--0----------|--------------1--0--|


                             7x                            6x
|----------------------------||----------------------------||
|*--------------------------*||*--------------------------*||
|----------------------------||----------------------------||
|*--------------------------*||*--------------------------*||
|---1--1--1--0--0--0--1--0---||---1--1--1--0--0--0--1--0---||


                                                           
-----------------------||---------------------------------|
-----------------------||*--------------------------------|
-----------------------||---------------------------------|
-----------------------||*--------------------------------|
--1--1--1--0--0--------||----2--2--2-2---2--2--2--2-1--1--|


                                                                     
---------------------------------||---------------------------------|
--------------------------------*||*--------------------------------|
---------------------------------||---------------------------------|
--------------------------------*||*--------------------------------|
---2--2--2-2---2--2--1--1-1--1---||----2--2--2-2---2--2--2--2-1--1--|


                                                              
---------------------------------||--------------------------|
--------------------------------*||*-------------------------|
---------------------------------||--------------------------|
--------------------------------*||*-------------------------|
---2--2--2-2---2--2--1--1-1--1---||----3--3--3--3--3--3-4----|


                                                    
-------------------------|-------------------------|
-------------------------|-------------------------|
-------------------------|-------------------------|
-------------------------|-------------------------|
---3--3--3--3--3--3-4----|---3--3--3--3--3--3-4----|


                                                          
-----------------------------||--------------------------|
----------------------------*||*-------------------------|
-----------------------------||--------------------------|
----------------------------*||*--------------------1----|
---3--3--3--3-3-3--3-3-3-3---||----0--0--0--0--0--0------|


                                                    
-------------------------|-------------------------|
-------------------------|-------------------------|
-------------------------|-------------------------|
--------------------1----|--------------------1----|
---0--0--0--0--0--0------|---0--0--0--0--0--0------|


                                                                 
-----------------------------||---------------------------------|
----------------------------*||*--------------------------------|
-----------------------------||---------------------------------|
----------------------------*||*--------------------------------|
---0--0--0--0-0-0--0-0-0-0---||----2--2--2-2---2--2--2--2-1--1--|


                                 3x                              
---------------------------------||-----------------------------|
--------------------------------*||*----------------------------|
---------------------------------||-----------------------------|
--------------------------------*||*----------------------------|
---2--2--2-2---2--2--1--1-1--1---||---4-4-4---4-4-4---4-4-4---4-|


                           3x                             
---------------------------||----------------------------|
--------------------------*||----------------------------|
---------------------------||----------------------------|
--------------------------*||----------------------------|
--4-4---4-4-4---4-4-4------||--0-0-0---0-0-0---0-0-0---0-|


                                                          
----------------------------|----------------------------|
----------------------------|----------------------------|
----------------------------|----------------------------|
----------------------------|----------------------------|
--0-0---0-0-0---0-0-0---0-0-|--0---0-0-0---0-0-0---0-0-0-|


                                                        
---------------------------|---------------------------|
---------------------------|---------------------------|
---------------------------|---------------------------|
---------------------------|---------------------------|
----0-0-0---0-0-0---0-0-0--|---0-0-0---0-0-0---0-0-0---|


                                                          
----------------------------|----------------------------|
----------------------------|----------------------------|
----------------------------|----------------------------|
----------------------------|----------------------------|
--0-0-0---0-0-0---0-0-0---0-|--0-0---0-0-0---0-0-0---0-0-|


                                                            
-----------------------------||----------------------------|
-----------------------------||*---------------------------|
-----------------------------||----------------------------|
-----------------------------||*--2------------------------|
--0---0-0-0---0-0-0--0-0-0-0-||------0---0-0-0---0-0-0---0-|


                                                        
---------------------------|---------------------------|
---------------------------|---------------------------|
---------------------------|---------------------------|
----------------------1----|--2------------------------|
--0-0---0-0-0---0-0-0------|-----0---0-0-0---0-0-0---0-|


                                                                          
----------------------------||----------------------|--------------------|
---------------------------*||*---------------------|--------------------|
----------------------------||----------------------|--------------------|
----------------------1----*||*--2------0-----------|--------------------|
--0-0---0-0-0---0-0-0-------||-----------------3----|----2------1--------|


                                                                       
---------------------|---------------------||-------------------------|
---------------------|--------------------*||*------------------------|
---------------------|---------------------||-------------------------|
--2------0-----------|--------------------*||*------------------------|
----------------3----|----2------1---------||---3-3-------2-2--2-2----|


                                                                       
----------------------|----------------------|-----------------------||
----------------------|----------------------|----------------------*||
----------------------|----------------------|-----------------------||
----------------------|----------------------|----------------------*||
--------2-2-------2-2-|---2-2----------2-2---|------2-2--2-2---------||


                                                                        
-------------------------|----------------------|----------------------|
*------------------------|----------------------|----------------------|
-------------------------|----------------------|----------------------|
*------------------------|----------------------|----------------------|
---3-3-------2-2--2-2----|--------2-2-------2-2-|---2-2----------2-2---|


                                                                          
-----------------------||-------------------------|----------------------|
----------------------*||*------------------------|----------------------|
-----------------------||-------------------------|----------------------|
----------------------*||*------------------------|----------------------|
------2-2--2-2---------||---3-3-------2-2--2-2----|--------2-2-------2-2-|


                                                                          
----------------------|-----------------------||------------------------||
----------------------|----------------------*||------------------------||
----------------------|-----------------------||------------------------||
----------------------|----------------------*||------------------------||
---2-2----------2-2---|------2-2--2-2---------||--3-3-------2-2--2-2----||





Comments


Popular Meshuggah tabs & chords
Soul Burn Bass Tabs
Choirs Of Devastation Tabs
Closed Eye Visuals Tabs
Erroneous Manipulations Tabs
Nebulous Tabs
Rational Gaze Tabs
Stengah Tabs
Sublevels Tabs
Sum Ending Tabs
Transfixition (Solo) Tabs


Song lyrics



↑ Back to top | Tablatures and chords are parodies/interpretations of the original songs. You may use it for private study, scholarship, research or language learning purposes only
© 2014 AZChords.com Contact us | Privacy policy | DMCA | Add/correct tabs | Request tabs | Top 50 tabs