>
 >
Elastic

Elastic Bass Tabs

Meshuggah - Elastic chords, tabs, tablatures, lyrics

Guitar lessons | Add/correct | Request | Top 50 tabs Artists:  A B C D E F G H I J K L M N O P Q R S T U V W X Y Z 0-9

Elastic Bass Tabs – Meshuggah

CD, Sheet music, Poster

Do you like Elastic? Share with your friends now
Bass TabsTabs
Band: Meshuggah
Tuning:A#,D#,G#,C#,F#

Ok after figuring out the tuning for this song it wasnt that hard to translate.

Tune down

F#||-------------|------------------------|------------------------|
C#||-------------|------------------------|------------------------|
G#||-------------|------------------------|------------------------|
D#||-------------|------------------------|------------------------|
A#||--2r-0---1---|--0-0-2r-0-2r-0-0--1----|--0-0-2r-0-2r-0-0--1----|


                                                    3x
------------------------|---------------------------||------|------|------|
------------------------|--------------------------*||------|------|------|
------------------------|---------------------------||------|------|------|
------------------------|--------------------------*||------|------|------|
--0-0-2r-0-2r-0-0--1----|--0-0-2r-0-2r-0-0--1--0-0--||------|------|------|

------|------|---------||----------|---------|-----------|---------|---------|
------|------|---------||*---------|---------|-----------|---------|---------|
------|------|---------||----------|---------|-----------|---------|---------|
------|------|---------||*---------|---------|-----------|---------|---------|
------|------|--2r-2-2-||---2r-2-2-|--2r-2-2-|--2r-2-2-2-|--2r-2-2-|--2r-2-2-|

---------|-----------|---------|---------|---------|-----------|---------|
---------|-----------|---------|---------|---------|-----------|---------|
---------|-----------|---------|---------|---------|-----------|---------|
---------|-----------|---------|---------|---------|-----------|---------|
--2r-2-2-|--2r-2-2-2-|--2r-2-2-|--2r-2-2-|--2r-2-2-|--2r-2-2-2-|--2r-2-2-|

---------|---------|-----------|---------|---------|---------|-----------|
---------|---------|-----------|---------|---------|---------|-----------|
---------|---------|-----------|---------|---------|---------|-----------|
---------|---------|-----------|---------|---------|---------|-----------|
--2r-2-2-|--2r-2-2-|--2r-2-2-2-|--2r-2-2-|--2r-2-2-|--2r-2-2-|--2r-2-2-2-|


                2x
---------|------||--------------|------------------------|
---------|-----*||*-------------|------------------------|
---------|------||--------------|------------------------|
---------|-----*||*-------------|------------------------|
--2r-2-2-|--2r--||---2r-0---1---|--0-0-2r-0-2r-0-0--1----|


                                                                             3x
------------------------|------------------------|---------------------------||
------------------------|------------------------|--------------------------*||
------------------------|------------------------|---------------------------||
------------------------|------------------------|--------------------------*||
--0-0-2r-0-2r-0-0--1----|--0-0-2r-0-2r-0-0--1----|--0-0-2r-0-2r-0-0--1--0-0--||

----------------------|----------------|---------------------|
----------------------|----------------|---------------------|
----------------------|----------------|---------------------|
----------------------|----------------|---------------------|
--0------------0---0--|-------------0--|---------0---0---0---|

----------------------|---------------------|---------------|------------------|
----------------------|---------------------|---------------|------------------|
----------------------|---------------------|---------------|------------------|
----------------------|---------------------|---------------|------------------|
----------0-------0---|-------------0---0---|-----------0---|------0---0---0---|

-----------||----------------------------|--------------------------|
-----------||*---------------------------|--------------------------|
-----------||----------------------------|--------------------------|
-----------||*------3------3-------------|----3------3----------3---|
-------0---||---0-------0-----2--0---0---|--------0------2--0-------|


                                                     3x
-------------------------|---------------------------||
-------------------------|--------------------------*||
-------------------------|---------------------------||
-------3-----------------|---3------3---------3-----*||
----0-----2--0---0---0---|-------0-----2--0------2---||

--------------------------------|-------------------------------|
*-------------------------------|-------------------------------|
--------------------------------|-------------------------------|
*--------2------------2-----2---|--------2------------2-----2---|
---1-1-1-1---1---1--1-1--1--1---|--1-1-1-1---1---1--1-1--1--1---|

-------------------------------|---------------||
-------------------------------|--------------*||
-------------------------------|---------------||
--------2------------2-----2---|--------2-----*||
--1-1-1-1---1---1--1-1--1--1---|--1-1-1-1---1--||

--------------------------------|-------------------------------|
*-------------------------------|-------------------------------|
--------------------------------|-------------------------------|
*--------2------------2-----2---|--------2------------2-----2---|
---1-1-1-1---1---1--1-1--1--1---|--1-1-1-1---1---1--1-1--1--1---|

-------------------------------|---------------||------------|
-------------------------------|--------------*||------------|
-------------------------------|---------------||------------|
--------2------------2-----2---|--------2-----*||--------2---|
--1-1-1-1---1---1--1-1--1--1---|--1-1-1-1---1--||--1-1-1-1---|

-------------------------------|-------------------------------|
-------------------------------|-------------------------------|
-------------------------------|-------------------------------|
--------2------------2---------|--------2------------2---------|
--0-0-0-1---0---0--0-1--0--0---|--0-0-0-1---0---0--0-1--0--0---|

-------------------------------|-------------|-------------------------------|
-------------------------------|-------------|-------------------------------|
-------------------------------|-------------|-------------------------------|
--------2------------2---------|--------2----|--------2------------2---------|
--0-0-0-1---0---0--0-1--0--0---|--0-0-0-1----|--0-0-0-1---0---0--0-1--0--0---|

-------------------------------|-------------------------------|-------------|
-------------------------------|-------------------------------|-------------|
-------------------------------|-------------------------------|-------------|
--------2------------2---------|--------2------------2---------|--------2----|
--0-0-0-1---0---0--0-1--0--0---|--0-0-0-1---0---0--0-1--0--0---|--0-0-0-1----|

-------------------------------|-------------------------------|
-------------------------------|-------------------------------|
-------------------------------|-------------------------------|
--------2------------2---------|--------2------------2---------|
--0-0-0-1---0---0--0-1--0--0---|--0-0-0-1---0---0--0-1--0--0---|

-------------------------------|-------------|-------------------------------|
-------------------------------|-------------|-------------------------------|
-------------------------------|-------------|-------------------------------|
--------2------------2---------|--------2----|--------2------------2---------|
--0-0-0-1---0---0--0-1--0--0---|--0-0-0-1----|--0-0-0-1---0---0--0-1--0--0---|

-------------------------------|-------------|---|----|----|----|----|---------|
-------------------------------|-------------|---|----|----|----|----|---------|
-------------------------------|-------------|---|----|----|----|----|---------|
--------2------------2---------|--------2----|---|----|----|----|----|---------|
--0-0-0-1---0---0--0-1--0--0---|--0-0-0-1----|---|----|----|----|----|--2r-2-2-|

|----------|---------|-----------|---------|---------|---------|-----------|
|*---------|---------|-----------|---------|---------|---------|-----------|
|----------|---------|-----------|---------|---------|---------|-----------|
|*---------|---------|-----------|---------|---------|---------|-----------|
|---2r-2-2-|--2r-2-2-|--2r-2-2-2-|--2r-2-2-|--2r-2-2-|--2r-2-2-|--2r-2-2-2-|

---------|---------|---------|-----------|---------|---------|---------|
---------|---------|---------|-----------|---------|---------|---------|
---------|---------|---------|-----------|---------|---------|---------|
---------|---------|---------|-----------|---------|---------|---------|
--2r-2-2-|--2r-2-2-|--2r-2-2-|--2r-2-2-2-|--2r-2-2-|--2r-2-2-|--2r-2-2-|

-----------|---------|---------|---------|-----------|---------|------||
-----------|---------|---------|---------|-----------|---------|-----*||
-----------|---------|---------|---------|-----------|---------|------||
-----------|---------|---------|---------|-----------|---------|-----*||
--2r-2-2-2-|--2r-2-2-|--2r-2-2-|--2r-2-2-|--2r-2-2-2-|--2r-2-2-|--2r--||

--------------|------------------------|------------------------|
*-------------|------------------------|------------------------|
--------------|------------------------|------------------------|
*-------------|------------------------|------------------------|
---2r-0---1---|--0-0-2r-0-2r-0-0--1----|--0-0-2r-0-2r-0-0--1----|


                                                    3x                10x
------------------------|---------------------------||----|---|---|----||---||
------------------------|--------------------------*||*---|---|---|---*||---||
------------------------|---------------------------||----|---|---|----||---||
------------------------|--------------------------*||*---|---|---|---*||---||
--0-0-2r-0-2r-0-0--1----|--0-0-2r-0-2r-0-0--1--0-0--||----|---|---|----||---||





Comments


Popular Meshuggah tabs & chords
Humiliative Bass Tabs
Transfixion Bass Tabs
Cadaverous Mastication Tabs
Choirs Of Devastation Tabs
Combustion Tabs
Nebulous Tabs
Neurotica Tabs
New Millennium Cyanide Christ Tabs
Straws Pulled At Random Tabs
Sublevels Tabs


Song lyrics



↑ Back to top | Tablatures and chords are parodies/interpretations of the original songs. You may use it for private study, scholarship, research or language learning purposes only
© 2014 AZChords.com Contact us | Privacy policy | DMCA | Add/correct tabs | Request tabs | Top 50 tabs