» » »

Mercyful Fate, Devil Eyes Bass tabs (ver.2)

Artists:  A B C D E F G H I J K L M N O P Q R S T U V W X Y Z # 

Devil Eyes Bass tabs (ver.2)

Mercyful Fate Tabs
 Rating:
4/5 (4 votes)
Devil Eyes lessons Tabs too difficult? Try these video lessons and learn fast
                -------------------------------------------------------------------------------
                             DEVIL EYES - Mercyful Fate
-------------------------------------------------------------------------------


0:18 Start
G|------------------|--------------------------------------------------------|
D|------------------|--------------------------------------------------------|
A|------------5-7-5-|--------------------------------------------------------|
E|------------------|--------------------------------------------------------|

0:20 Main riff 8 times
G|------------------|--------------------------------------------------------|
D|------------------|--------------------------------------------------------|
A|-5h777777-775-7-5-|--------------------------------------------------------|
E|------------------|--------------------------------------------------------|

0:35 Main riff 8 times under verse
G|------------------|--------------------------------------------------------|
D|------------------|--------------------------------------------------------|
A|-5h777777-775-7-5-|--------------------------------------------------------|
E|------------------|--------------------------------------------------------|

0:50 Chorus part 1
G|---------------|------------------|---------------|------------------|-----|
D|---------------|------------------|-9-------------|------------------|-----|
A|-7---10\-777-77|-5h777777-775-7-5-|-----10\-777-77|-5h777777-775-7-5-|-----|
E|---------------|------------------|---------------|------------------|-----|

G|---------------|------------------|---------------|------------------|-----|
D|---------------|------------------|---------------|------------------|-----|
A|-7---10\-777-77|-5h777777-775-7-5-|-7---10\-777-77|-5h777777-77775-6-|-----|
E|---------------|------------------|---------------|------------------|-----|

1:04 Chorus part 2
G|---------------|------------------|---------------|------------------|-----|
D|---------------|------------------|---------------|------------------|-----|
A|-7---10\-777-77|-5h777777-77775-6-|-7---10\-777-77|-5h777777-77775-6-|-----|
E|---------------|------------------|---------------|------------------|-----|

G|---------------|------------------|---------------|------------------|-----|
D|---------------|------------------|---------------|------------------|-----|
A|-7---10\-777-77|-5h777777-77775-6-|-7---10\-777-77|-5h777777-775-7-5-|-----|
E|---------------|------------------|---------------|------------------|-----|

1:19 Chorus part 3
G|-----------------|-----------------|-----------------|-----------------|---|
D|-----------------|-----------------|-----------------|-----------------|---|
A|-3-333-333-333-33|-3-333-333-r-4-5-|---555-555-555-55|-5-555-555-r-4-3-|---|
E|-----------------|-----------------|-----------------|-----------------|---|

G|-----------------|-----------------|-----------------|-----------------|---|
D|-----------------|-----------------|-----------------|-----------------|---|
A|---333-333-333-33|-3-333-333-r-4-5-|---555-555-555-55|-5---------------|---|
E|-----------------|-----------------|-----------------|-----------------|---|

1:33 Main riff 4 times
G|------------------|--------------------------------------------------------|
D|------------------|--------------------------------------------------------|
A|-5h777777-775-7-5-|--------------------------------------------------------|
E|------------------|--------------------------------------------------------|

1:41 Main riff 8 times under harmonized solo
G|------------------|--------------------------------------------------------|
D|------------------|--------------------------------------------------------|
A|-5h777777-775-7-5-|--------------------------------------------------------|
E|------------------|--------------------------------------------------------|

1:55 Main riff 8 times under solo
G|------------------|--------------------------------------------------------|
D|------------------|--------------------------------------------------------|
A|-5h777777-775-7-5-|--------------------------------------------------------|
E|------------------|--------------------------------------------------------|

2:10 Main riff 8 times under verse
G|------------------|--------------------------------------------------------|
D|------------------|--------------------------------------------------------|
A|-5h777777-775-7-5-|--------------------------------------------------------|
E|------------------|--------------------------------------------------------|

2:24 Chorus part 1
G|---------------|------------------|---------------|------------------|-----|
D|---------------|------------------|-9-------------|------------------|-----|
A|-7---10\-777-77|-5h777777-775-7-5-|-----10\-777-77|-5h777777-775-7-5-|-----|
E|---------------|------------------|---------------|------------------|-----|

G|---------------|------------------|---------------|------------------|-----|
D|---------------|------------------|---------------|------------------|-----|
A|-7---10\-777-77|-5h777777-775-7-5-|-7---10\-777-77|-5h777777-77775-6-|-----|
E|---------------|------------------|---------------|------------------|-----|

2:39 Chorus part 2
G|---------------|------------------|---------------|------------------|-----|
D|---------------|------------------|---------------|------------------|-----|
A|-7---10\-777-77|-5h777777-77775-6-|-7---10\-777-77|-5h777777-77775-6-|-----|
E|---------------|------------------|---------------|------------------|-----|

G|---------------|------------------|---------------|------------------|-----|
D|---------------|------------------|---------------|------------------|-----|
A|-7---10\-777-77|-5h777777-77775-6-|-7---10\-777-77|-5h777777-775-7-5-|-----|
E|---------------|------------------|---------------|------------------|-----|

2:54 Bridge 4 times
G|----------------|--------------------|-------------------------------------|
D|----------------|--------------------|-------------------------------------|
A|-2-222-222-223--|-2-222-222-223-2-3--|-------------------------------------|
E|----------------|--------------------|-------------------------------------|

3:14 Main riff 8 times under bridge
G|------------------|--------------------------------------------------------|
D|------------------|--------------------------------------------------------|
A|-5h777777-775-7-5-|--------------------------------------------------------|
E|------------------|--------------------------------------------------------|

3:28 Main riff 8 times
G|------------------|--------------------------------------------------------|
D|------------------|--------------------------------------------------------|
A|-5h777777-775-7-5-|--------------------------------------------------------|
E|------------------|--------------------------------------------------------|

3:43 Main riff 8 times under verse
G|------------------|--------------------------------------------------------|
D|------------------|--------------------------------------------------------|
A|-5h777777-775-7-5-|--------------------------------------------------------|
E|------------------|--------------------------------------------------------|

3:58 Chorus part 1
G|---------------|------------------|---------------|------------------|-----|
D|---------------|------------------|-9-------------|------------------|-----|
A|-7---10\-777-77|-5h777777-775-7-5-|-----10\-777-77|-5h777777-775-7-5-|-----|
E|---------------|------------------|---------------|------------------|-----|

G|---------------|------------------|---------------|------------------|-----|
D|---------------|------------------|---------------|------------------|-----|
A|-7---10\-777-77|-5h777777-775-7-5-|-7---10\-777-77|-5h777777-77775-6-|-----|
E|---------------|------------------|---------------|------------------|-----|

4:12 Chorus part 2
G|---------------|------------------|---------------|------------------|-----|
D|---------------|------------------|---------------|------------------|-----|
A|-7---10\-777-77|-5h777777-77775-6-|-7---10\-777-77|-5h777777-77775-6-|-----|
E|---------------|------------------|---------------|------------------|-----|

G|---------------|------------------|---------------|------------------|-----|
D|---------------|------------------|---------------|------------------|-----|
A|-7---10\-777-77|-5h777777-77775-6-|-7---10\-777-77|-5h777777-775-7-5-|-----|
E|---------------|------------------|---------------|------------------|-----|

4:27 Chorus part 3
G|-----------------|-----------------|-----------------|-----------------|---|
D|-----------------|-----------------|-----------------|-----------------|---|
A|-3-333-333-333-33|-3-333-333-r-4-5-|---555-555-555-55|-5-555-555-r-4-3-|---|
E|-----------------|-----------------|-----------------|-----------------|---|

G|-----------------|-----------------|-----------------|-----------------|---|
D|-----------------|-----------------|-----------------|-----------------|---|
A|---333-333-333-33|-3-333-333-r-4-5-|---555-555-555-55|-5---------------|---|
E|-----------------|-----------------|-----------------|-----------------|---|

4:41 Bridge 2 times
G|-----------------|-----------------|-----------|---------------|-----------|
D|-----------------|-----------------|7\-5\-3\-2\|-7\-5\-2-------|-----------|
A|-0000000000000000|-0000000000000000|-----------|---------3-2-2-|-----------|
E|-----------------|-----------------|-----------|---------------|-----------|

4:56 Lead backing 4 times
G|-----------------|-----------------|-----------------|-----------------|---|
D|-----------------|-----------------|-----------------|-----------------|---|
A|-3-333-332-222-22|-0-000-00--------|-----------------|-----------------|---|
E|-----------------|---------3-333-33|-1-111-111-111-11|-0-000-000-000-00|---|

5:24 Main riff 4 times 
G|------------------|--------------------------------------------------------|
D|------------------|--------------------------------------------------------|
A|-5h777777-775-7-5-|--------------------------------------------------------|
E|------------------|--------------------------------------------------------|

5:31 Main riff 8 times under chorus 
G|------------------|--------------------------------------------------------|
D|------------------|--------------------------------------------------------|
A|-5h777777-775-7-5-|--------------------------------------------------------|
E|------------------|--------------------------------------------------------|

5:46 End
G|---------------------------------------------------------------------------|
D|---------------------------------------------------------------------------|
A|-7-------------------------------------------------------------------------|
E|---------------------------------------------------------------------------|



| \  slide down
| r  rest
| h  hammer-on

===============================================================================
            
Submit corrections

comments powered by Disqus
↑ Back to top | Mercyful Fate Bass for Devil Eyes. Lyrics for acoustic guitar and electric guitar. Tablatures and chords are parodies/interpretations of the original songs. You may use it for private study, scholarship, research or language learning purposes only