» » »

Mercyful Fate, Devil Eyes Bass tabs (ver.1)

Artists:  A B C D E F G H I J K L M N O P Q R S T U V W X Y Z # 

Devil Eyes Bass tabs (ver.1)

Mercyful Fate Tabs
 Rating:
4/5 (4 votes)
Devil Eyes lessons Tabs too difficult? Try these video lessons and learn fast
                E||------------------|------------------|------------------|------------------|
B||------------------|------------------|------------------|------------------|
G||------------------|------------------|------------------|------------------|
D||------------------|------------------|------------------|------------------|
A||------------------|------------------|------------------|------------------|
E||------------------|------------------|------------------|------------------|


                                                                            
                                                                            
------------------|------------------|------------------|-------------------|
------------------|------------------|------------------|-------------------|
------------------|------------------|------------------|-------------------|
------------------|------------------|------------------|-------------------|
------------------|------------------|------------------|--------------0----|
------------------|------------------|------------------|-------------------|


                                                            
-----------------------------|-----------------------------|
-----------------------------|-----------------------------|
-----------------------------|-----------------------------|
-----------------------------|-----------------------------|
--7--7-7-7-7-7--7-7-5--7--5--|--7--7-7-7-7-7--7-7-5--7--5--|
-----------------------------|-----------------------------|


                                                            
-----------------------------|-----------------------------|
-----------------------------|-----------------------------|
-----------------------------|-----------------------------|
-----------------------------|-----------------------------|
--7--7-7-7-7-7--7-7-5--7--5--|--7--7-7-7-7-7--7-7-5--7--5--|
-----------------------------|-----------------------------|


                                                            
-----------------------------|-----------------------------|
-----------------------------|-----------------------------|
-----------------------------|-----------------------------|
-----------------------------|-----------------------------|
--7--7-7-7-7-7--7-7-5--7--5--|--7--7-7-7-7-7--7-7-5--7--5--|
-----------------------------|-----------------------------|


                                                            
-----------------------------|-----------------------------|
-----------------------------|-----------------------------|
-----------------------------|-----------------------------|
-----------------------------|-----------------------------|
--7--7-7-7-7-7--7-7-5--7--5--|--7--7-7-7-7-7--7-7-5--7--5--|
-----------------------------|-----------------------------|


                                                            
-----------------------------|-----------------------------|
-----------------------------|-----------------------------|
-----------------------------|-----------------------------|
-----------------------------|-----------------------------|
--7--7-7-7-7-7--7-7-5--7--5--|--7--7-7-7-7-7--7-7-5--7--5--|
-----------------------------|-----------------------------|


                                                            
-----------------------------|-----------------------------|
-----------------------------|-----------------------------|
-----------------------------|-----------------------------|
-----------------------------|-----------------------------|
--7--7-7-7-7-7--7-7-5--7--5--|--7--7-7-7-7-7--7-7-5--7--5--|
-----------------------------|-----------------------------|


                                                            
-----------------------------|-----------------------------|
-----------------------------|-----------------------------|
-----------------------------|-----------------------------|
-----------------------------|-----------------------------|
--7--7-7-7-7-7--7-7-5--7--5--|--7--7-7-7-7-7--7-7-5--7--5--|
-----------------------------|-----------------------------|


                                                            
-----------------------------|-----------------------------|
-----------------------------|-----------------------------|
-----------------------------|-----------------------------|
-----------------------------|-----------------------------|
--7--7-7-7-7-7--7-7-5--7--5--|--7--7-7-7-7-7--7-7-5--7--5--|
-----------------------------|-----------------------------|


                                                                                
------------------------|-----------------------------|------------------------|
------------------------|-----------------------------|------------------------|
------------------------|-----------------------------|------------------------|
------------------------|-----------------------------|--7----7----------------|
--7----7--9------7--7-7-|--5--7-7-7-7-7--7-7-5--7--5--|----------9------7--7-7-|
------------------------|-----------------------------|------------------------|


                                                       
-----------------------------|------------------------|
-----------------------------|------------------------|
-----------------------------|------------------------|
-----------------------------|------------------------|
--5--7-7-7-7-7--7-7-5--7--5--|--7----7--9------7--7-7-|
-----------------------------|------------------------|


                                                       
-----------------------------|------------------------|
-----------------------------|------------------------|
-----------------------------|------------------------|
-----------------------------|------------------------|
--5--7-7-7-7-7--7-7-5--7--5--|--7----7--9------7--7-7-|
-----------------------------|------------------------|


                                                        
------------------------------|------------------------|
------------------------------|------------------------|
------------------------------|------------------------|
------------------------------|------------------------|
--5--7-7-7-7-7--7-7-7-7-5--6--|--7----7--9------7--7-7-|
------------------------------|------------------------|


                                                        
------------------------------|------------------------|
------------------------------|------------------------|
------------------------------|------------------------|
------------------------------|------------------------|
--5--7-7-7-7-7--7-7-7-7-5--6--|--7----7--9------7--7-7-|
------------------------------|------------------------|


                                                        
------------------------------|------------------------|
------------------------------|------------------------|
------------------------------|------------------------|
------------------------------|------------------------|
--5--7-7-7-7-7--7-7-7-7-5--6--|--7----7--9------7--7-7-|
------------------------------|------------------------|


                                                        
------------------------------|------------------------|
------------------------------|------------------------|
------------------------------|------------------------|
------------------------------|------------------------|
--5--7-7-7-7-7--7-7-7-7-5--6--|--7----7--9------7--7-7-|
------------------------------|------------------------|


                                                             
-----------------------------|------------------------------|
-----------------------------|------------------------------|
-----------------------------|------------------------------|
-----------------------------|------------------------------|
--5--7-7-7-7-7--7-7-5--7--5--|--3--3-3-3--3-3-3--3-3-3--3-3-|
-----------------------------|------------------------------|


                                                          
---------------------------|-----------------------------|
---------------------------|-----------------------------|
---------------------------|-----------------------------|
---------------------------|-----------------------------|
--3--3-3-3--3-3-3----4--5--|----5-5-5--5-5-5--5-5-5--5-5-|
---------------------------|-----------------------------|


                                                          
---------------------------|-----------------------------|
---------------------------|-----------------------------|
---------------------------|-----------------------------|
---------------------------|-----------------------------|
--5--5-5-5--5-5-5----4--3--|----3-3-3--3-3-3--3-3-3--3-3-|
---------------------------|-----------------------------|


                                                                              
---------------------------|-----------------------------|-------------------|
---------------------------|-----------------------------|-------------------|
---------------------------|-----------------------------|-------------------|
---------------------------|-----------------------------|-------------------|
--3--3-3-3--3-3-3----4--5--|----5-5-5--5-5-5--5-5-5--5-5-|--5----------------|
---------------------------|-----------------------------|-------------------|


                                                            
-----------------------------|-----------------------------|
-----------------------------|-----------------------------|
-----------------------------|-----------------------------|
-----------------------------|-----------------------------|
--7--7-7-7-7-7--7-7-5--7--5--|--7--7-7-7-7-7--7-7-5--7--5--|
-----------------------------|-----------------------------|


                                                            
-----------------------------|-----------------------------|
-----------------------------|-----------------------------|
-----------------------------|-----------------------------|
-----------------------------|-----------------------------|
--7--7-7-7-7-7--7-7-5--7--5--|--7--7-7-7-7-7--7-7-5--7--5--|
-----------------------------|-----------------------------|


                                                            
-----------------------------|-----------------------------|
-----------------------------|-----------------------------|
-----------------------------|-----------------------------|
-----------------------------|-----------------------------|
--7--7-7-7-7-7--7-7-5--7--5--|--7--7-7-7-7-7--7-7-5--7--5--|
-----------------------------|-----------------------------|


                                                            
-----------------------------|-----------------------------|
-----------------------------|-----------------------------|
-----------------------------|-----------------------------|
-----------------------------|-----------------------------|
--7--7-7-7-7-7--7-7-5--7--5--|--7--7-7-7-7-7--7-7-5--7--5--|
-----------------------------|-----------------------------|


                                                            
-----------------------------|-----------------------------|
-----------------------------|-----------------------------|
-----------------------------|-----------------------------|
-----------------------------|-----------------------------|
--7--7-7-7-7-7--7-7-5--7--5--|--7--7-7-7-7-7--7-7-5--7--5--|
-----------------------------|-----------------------------|


                                                            
-----------------------------|-----------------------------|
-----------------------------|-----------------------------|
-----------------------------|-----------------------------|
-----------------------------|-----------------------------|
--7--7-7-7-7-7--7-7-5--7--5--|--7--7-7-7-7-7--7-7-5--7--5--|
-----------------------------|-----------------------------|


                                                            
-----------------------------|-----------------------------|
-----------------------------|-----------------------------|
-----------------------------|-----------------------------|
-----------------------------|-----------------------------|
--7--7-7-7-7-7--7-7-5--7--5--|--7--7-7-7-7-7--7-7-5--7--5--|
-----------------------------|-----------------------------|


                                                            
-----------------------------|-----------------------------|
-----------------------------|-----------------------------|
-----------------------------|-----------------------------|
-----------------------------|-----------------------------|
--7--7-7-7-7-7--7-7-5--7--5--|--7--7-7-7-7-7--7-7-5--7--5--|
-----------------------------|-----------------------------|


                                                            
-----------------------------|-----------------------------|
-----------------------------|-----------------------------|
-----------------------------|-----------------------------|
-----------------------------|-----------------------------|
--7--7-7-7-7-7--7-7-5--7--5--|--7--7-7-7-7-7--7-7-5--7--5--|
-----------------------------|-----------------------------|


                                                            
-----------------------------|-----------------------------|
-----------------------------|-----------------------------|
-----------------------------|-----------------------------|
-----------------------------|-----------------------------|
--7--7-7-7-7-7--7-7-5--7--5--|--7--7-7-7-7-7--7-7-5--7--5--|
-----------------------------|-----------------------------|


                                                            
-----------------------------|-----------------------------|
-----------------------------|-----------------------------|
-----------------------------|-----------------------------|
-----------------------------|-----------------------------|
--7--7-7-7-7-7--7-7-5--7--5--|--7--7-7-7-7-7--7-7-5--7--5--|
-----------------------------|-----------------------------|


                                                            
-----------------------------|-----------------------------|
-----------------------------|-----------------------------|
-----------------------------|-----------------------------|
-----------------------------|-----------------------------|
--7--7-7-7-7-7--7-7-5--7--5--|--7--7-7-7-7-7--7-7-5--7--5--|
-----------------------------|-----------------------------|


                                                            
-----------------------------|-----------------------------|
-----------------------------|-----------------------------|
-----------------------------|-----------------------------|
-----------------------------|-----------------------------|
--7--7-7-7-7-7--7-7-5--7--5--|--7--7-7-7-7-7--7-7-5--7--5--|
-----------------------------|-----------------------------|


                                                            
-----------------------------|-----------------------------|
-----------------------------|-----------------------------|
-----------------------------|-----------------------------|
-----------------------------|-----------------------------|
--7--7-7-7-7-7--7-7-5--7--5--|--7--7-7-7-7-7--7-7-5--7--5--|
-----------------------------|-----------------------------|


                                                                                
------------------------|-----------------------------|------------------------|
------------------------|-----------------------------|------------------------|
------------------------|-----------------------------|------------------------|
------------------------|-----------------------------|--7----7----------------|
--7----7--9------7--7-7-|--5--7-7-7-7-7--7-7-5--7--5--|----------9------7--7-7-|
------------------------|-----------------------------|------------------------|


                                                       
-----------------------------|------------------------|
-----------------------------|------------------------|
-----------------------------|------------------------|
-----------------------------|------------------------|
--5--7-7-7-7-7--7-7-5--7--5--|--7----7--9------7--7-7-|
-----------------------------|------------------------|


                                                       
-----------------------------|------------------------|
-----------------------------|------------------------|
-----------------------------|------------------------|
-----------------------------|------------------------|
--5--7-7-7-7-7--7-7-5--7--5--|--7----7--9------7--7-7-|
-----------------------------|------------------------|


                                                        
------------------------------|------------------------|
------------------------------|------------------------|
------------------------------|------------------------|
------------------------------|------------------------|
--5--7-7-7-7-7--7-7-7-7-5--6--|--7----7--9------7--7-7-|
------------------------------|------------------------|


                                                        
------------------------------|------------------------|
------------------------------|------------------------|
------------------------------|------------------------|
------------------------------|------------------------|
--5--7-7-7-7-7--7-7-7-7-5--6--|--7----7--9------7--7-7-|
------------------------------|------------------------|


                                                        
------------------------------|------------------------|
------------------------------|------------------------|
------------------------------|------------------------|
------------------------------|------------------------|
--5--7-7-7-7-7--7-7-7-7-5--6--|--7----7--9------7--7-7-|
------------------------------|------------------------|


                                                        
------------------------------|------------------------|
------------------------------|------------------------|
------------------------------|------------------------|
------------------------------|------------------------|
--5--7-7-7-7-7--7-7-7-7-5--6--|--7----7--9------7--7-7-|
------------------------------|------------------------|


                                                          
-----------------------------|---------------------------|
-----------------------------|---------------------------|
-----------------------------|---------------------------|
-----------------------------|---------------------------|
--5--7-7-7-7-7--7-7-5--7--5--|--2--2-2-2--2-2-2--2--3----|
-----------------------------|---------------------------|


                                                              
---------------------------------|---------------------------|
---------------------------------|---------------------------|
---------------------------------|---------------------------|
---------------------------------|---------------------------|
--2--2-2-2--2-2-2--2--3--2--3----|--2--2-2-2--2-2-2--2--3----|
---------------------------------|---------------------------|


                                                              
---------------------------------|---------------------------|
---------------------------------|---------------------------|
---------------------------------|---------------------------|
---------------------------------|---------------------------|
--2--2-2-2--2-2-2--2--3--2--3----|--2--2-2-2--2-2-2--2--3----|
---------------------------------|---------------------------|


                                                              
---------------------------------|---------------------------|
---------------------------------|---------------------------|
---------------------------------|---------------------------|
---------------------------------|---------------------------|
--2--2-2-2--2-2-2--2--3--2--3----|--2--2-2-2--2-2-2--2--3----|
---------------------------------|---------------------------|


                                                                            
---------------------------------|------------------|----------------------|
---------------------------------|------------------|----------------------|
---------------------------------|------------------|----------------------|
---------------------------------|------------------|----------------------|
--2--2-2-2--2-2-2--2--3--2--3----|------------------|----------------------|
---------------------------------|------------------|----------------------|


                                                            
-----------------------------|-----------------------------|
-----------------------------|-----------------------------|
-----------------------------|-----------------------------|
-----------------------------|-----------------------------|
--7--7-7-7-7-7--7-7-5--7--5--|--7--7-7-7-7-7--7-7-5--7--5--|
-----------------------------|-----------------------------|


                                                            
-----------------------------|-----------------------------|
-----------------------------|-----------------------------|
-----------------------------|-----------------------------|
-----------------------------|-----------------------------|
--7--7-7-7-7-7--7-7-5--7--5--|--7--7-7-7-7-7--7-7-5--7--5--|
-----------------------------|-----------------------------|


                                                            
-----------------------------|-----------------------------|
-----------------------------|-----------------------------|
-----------------------------|-----------------------------|
-----------------------------|-----------------------------|
--7--7-7-7-7-7--7-7-5--7--5--|--7--7-7-7-7-7--7-7-5--7--5--|
-----------------------------|-----------------------------|


                                                            
-----------------------------|-----------------------------|
-----------------------------|-----------------------------|
-----------------------------|-----------------------------|
-----------------------------|-----------------------------|
--7--7-7-7-7-7--7-7-5--7--5--|--7--7-7-7-7-7--7-7-5--7--5--|
-----------------------------|-----------------------------|


                                                            
-----------------------------|-----------------------------|
-----------------------------|-----------------------------|
-----------------------------|-----------------------------|
-----------------------------|-----------------------------|
--7--7-7-7-7-7--7-7-5--7--5--|--7--7-7-7-7-7--7-7-5--7--5--|
-----------------------------|-----------------------------|


                                                            
-----------------------------|-----------------------------|
-----------------------------|-----------------------------|
-----------------------------|-----------------------------|
-----------------------------|-----------------------------|
--7--7-7-7-7-7--7-7-5--7--5--|--7--7-7-7-7-7--7-7-5--7--5--|
-----------------------------|-----------------------------|


                                                            
-----------------------------|-----------------------------|
-----------------------------|-----------------------------|
-----------------------------|-----------------------------|
-----------------------------|-----------------------------|
--7--7-7-7-7-7--7-7-5--7--5--|--7--7-7-7-7-7--7-7-5--7--5--|
-----------------------------|-----------------------------|


                                                            
-----------------------------|-----------------------------|
-----------------------------|-----------------------------|
-----------------------------|-----------------------------|
-----------------------------|-----------------------------|
--7--7-7-7-7-7--7-7-5--7--5--|--7--7-7-7-7-7--7-7-5--7--5--|
-----------------------------|-----------------------------|


                                                            
-----------------------------|-----------------------------|
-----------------------------|-----------------------------|
-----------------------------|-----------------------------|
-----------------------------|-----------------------------|
--7--7-7-7-7-7--7-7-5--7--5--|--7--7-7-7-7-7--7-7-5--7--5--|
-----------------------------|-----------------------------|


                                                            
-----------------------------|-----------------------------|
-----------------------------|-----------------------------|
-----------------------------|-----------------------------|
-----------------------------|-----------------------------|
--7--7-7-7-7-7--7-7-5--7--5--|--7--7-7-7-7-7--7-7-5--7--5--|
-----------------------------|-----------------------------|


                                                            
-----------------------------|-----------------------------|
-----------------------------|-----------------------------|
-----------------------------|-----------------------------|
-----------------------------|-----------------------------|
--7--7-7-7-7-7--7-7-5--7--5--|--7--7-7-7-7-7--7-7-5--7--5--|
-----------------------------|-----------------------------|


                                                            
-----------------------------|-----------------------------|
-----------------------------|-----------------------------|
-----------------------------|-----------------------------|
-----------------------------|-----------------------------|
--7--7-7-7-7-7--7-7-5--7--5--|--7--7-7-7-7-7--7-7-5--7--5--|
-----------------------------|-----------------------------|


                                                                                
------------------------|-----------------------------|------------------------|
------------------------|-----------------------------|------------------------|
------------------------|-----------------------------|------------------------|
------------------------|-----------------------------|--7----7----------------|
--7----7--9------7--7-7-|--5--7-7-7-7-7--7-7-5--7--5--|----------9------7--7-7-|
------------------------|-----------------------------|------------------------|


                                                       
-----------------------------|------------------------|
-----------------------------|------------------------|
-----------------------------|------------------------|
-----------------------------|------------------------|
--5--7-7-7-7-7--7-7-5--7--5--|--7----7--9------7--7-7-|
-----------------------------|------------------------|


                                                       
-----------------------------|------------------------|
-----------------------------|------------------------|
-----------------------------|------------------------|
-----------------------------|------------------------|
--5--7-7-7-7-7--7-7-5--7--5--|--7----7--9------7--7-7-|
-----------------------------|------------------------|


                                                        
------------------------------|------------------------|
------------------------------|------------------------|
------------------------------|------------------------|
------------------------------|------------------------|
--5--7-7-7-7-7--7-7-7-7-5--6--|--7----7--9------7--7-7-|
------------------------------|------------------------|


                                                        
------------------------------|------------------------|
------------------------------|------------------------|
------------------------------|------------------------|
------------------------------|------------------------|
--5--7-7-7-7-7--7-7-7-7-5--6--|--7----7--9------7--7-7-|
------------------------------|------------------------|


                                                        
------------------------------|------------------------|
------------------------------|------------------------|
------------------------------|------------------------|
------------------------------|------------------------|
--5--7-7-7-7-7--7-7-7-7-5--6--|--7----7--9------7--7-7-|
------------------------------|------------------------|


                                                        
------------------------------|------------------------|
------------------------------|------------------------|
------------------------------|------------------------|
------------------------------|------------------------|
--5--7-7-7-7-7--7-7-7-7-5--6--|--7----7--9------7--7-7-|
------------------------------|------------------------|


                                                             
-----------------------------|------------------------------|
-----------------------------|------------------------------|
-----------------------------|------------------------------|
-----------------------------|------------------------------|
--5--7-7-7-7-7--7-7-5--7--5--|--3--3-3-3--3-3-3--3-3-3--3-3-|
-----------------------------|------------------------------|


                                                          
---------------------------|-----------------------------|
---------------------------|-----------------------------|
---------------------------|-----------------------------|
---------------------------|-----------------------------|
--3--3-3-3--3-3-3----4--5--|----5-5-5--5-5-5--5-5-5--5-5-|
---------------------------|-----------------------------|


                                                          
---------------------------|-----------------------------|
---------------------------|-----------------------------|
---------------------------|-----------------------------|
---------------------------|-----------------------------|
--5--5-5-5--5-5-5----4--3--|----3-3-3--3-3-3--3-3-3--3-3-|
---------------------------|-----------------------------|


                                                                              
---------------------------|-----------------------------|-------------------|
---------------------------|-----------------------------|-------------------|
---------------------------|-----------------------------|-------------------|
---------------------------|-----------------------------|-------------------|
--3--3-3-3--3-3-3----4--5--|----5-5-5--5-5-5--5-5-5--5-5-|--5----------------|
---------------------------|-----------------------------|-------------------|


                                                                     
----------------------|----------------------|----------------------|
----------------------|----------------------|----------------------|
----------------------|----------------------|----------------------|
----------------------|----------------------|--7----5----3---------|
--0----0----0----0----|--0----0----0----0----|-----------------7----|
----------------------|----------------------|----------------------|


                                                                       
------------------------|----------------------|----------------------|
------------------------|----------------------|----------------------|
------------------------|----------------------|----------------------|
--7----5----------------|----------------------|----------------------|
------------7--5--4--2--|--0----0----0----0----|--0----0----0----0----|
------------------------|----------------------|----------------------|


                                                                               
----------------------|------------------------|------------------------------|
----------------------|------------------------|------------------------------|
----------------------|------------------------|------------------------------|
--7----5----3---------|--7----5----------------|------------------------------|
-----------------7----|------------7--5--4--2--|--3--3-3-3--3-3-2--2-2-2--2-2-|
----------------------|------------------------|------------------------------|


                                                              
------------------------------|------------------------------|
------------------------------|------------------------------|
------------------------------|------------------------------|
------------------------------|------------------------------|
--0--0-0-0--0-0---------------|------------------------------|
----------------3--3-3-3--3-3-|--1--1-1-1--1-1-1--1-1-1--1-1-|


                                                          
--------------------------|------------------------------|
--------------------------|------------------------------|
--------------------------|------------------------------|
-----2-----2-----2-----2--|------------------------------|
--------------------------|--3--3-3-3--3-3-2--2-2-2--2-2-|
--0-----0-----0-----0-----|------------------------------|


                                                              
------------------------------|------------------------------|
------------------------------|------------------------------|
------------------------------|------------------------------|
------------------------------|------------------------------|
--0--0-0-0--0-0---------------|------------------------------|
----------------3--3-3-3--3-3-|--1--1-1-1--1-1-1--1-1-1--1-1-|


                                                          
--------------------------|------------------------------|
--------------------------|------------------------------|
--------------------------|------------------------------|
-----2-----2-----2-----2--|------------------------------|
--------------------------|--3--3-3-3--3-3-2--2-2-2--2-2-|
--0-----0-----0-----0-----|------------------------------|


                                                              
------------------------------|------------------------------|
------------------------------|------------------------------|
------------------------------|------------------------------|
------------------------------|------------------------------|
--0--0-0-0--0-0---------------|------------------------------|
----------------3--3-3-3--3-3-|--1--1-1-1--1-1-1--1-1-1--1-1-|


                                                          
--------------------------|------------------------------|
--------------------------|------------------------------|
--------------------------|------------------------------|
-----2-----2-----2-----2--|------------------------------|
--------------------------|--3--3-3-3--3-3-2--2-2-2--2-2-|
--0-----0-----0-----0-----|------------------------------|


                                                              
------------------------------|------------------------------|
------------------------------|------------------------------|
------------------------------|------------------------------|
------------------------------|------------------------------|
--0--0-0-0--0-0---------------|------------------------------|
----------------3--3-3-3--3-3-|--1--1-1-1--1-1-1--1-1-1--1-1-|


                                                         
--------------------------|-----------------------------|
--------------------------|-----------------------------|
--------------------------|-----------------------------|
-----2-----2-----2-----2--|-----------------------------|
--------------------------|--7--7-7-7-7-7--7-7-5--7--5--|
--0-----0-----0-----0-----|-----------------------------|


                                                            
-----------------------------|-----------------------------|
-----------------------------|-----------------------------|
-----------------------------|-----------------------------|
-----------------------------|-----------------------------|
--7--7-7-7-7-7--7-7-5--7--5--|--7--7-7-7-7-7--7-7-5--7--5--|
-----------------------------|-----------------------------|


                                                            
-----------------------------|-----------------------------|
-----------------------------|-----------------------------|
-----------------------------|-----------------------------|
-----------------------------|-----------------------------|
--7--7-7-7-7-7--7-7-5--7--5--|--7--7-7-7-7-7--7-7-5--7--5--|
-----------------------------|-----------------------------|


                                                            
-----------------------------|-----------------------------|
-----------------------------|-----------------------------|
-----------------------------|-----------------------------|
-----------------------------|-----------------------------|
--7--7-7-7-7-7--7-7-5--7--5--|--7--7-7-7-7-7--7-7-5--7--5--|
-----------------------------|-----------------------------|


                                                            
-----------------------------|-----------------------------|
-----------------------------|-----------------------------|
-----------------------------|-----------------------------|
-----------------------------|-----------------------------|
--7--7-7-7-7-7--7-7-5--7--5--|--7--7-7-7-7-7--7-7-5--7--5--|
-----------------------------|-----------------------------|


                                                            
-----------------------------|-----------------------------|
-----------------------------|-----------------------------|
-----------------------------|-----------------------------|
-----------------------------|-----------------------------|
--7--7-7-7-7-7--7-7-5--7--5--|--7--7-7-7-7-7--7-7-5--7--5--|
-----------------------------|-----------------------------|


                                                   
-----------------------------|-------------------||
-----------------------------|-------------------||
-----------------------------|-------------------||
-----------------------------|-------------------||
--7--7-7-7-7-7--7-7-5--7--5--|--5----------------||
-----------------------------|-------------------||
            
Submit corrections

comments powered by Disqus
↑ Back to top | Mercyful Fate Bass for Devil Eyes. Lyrics for acoustic guitar and electric guitar. Tablatures and chords are parodies/interpretations of the original songs. You may use it for private study, scholarship, research or language learning purposes only