>
 >
Fighting For Nothing 1

Fighting For Nothing 1 Guitar Tabs

Meg And Dia - Fighting For Nothing 1 chords, tabs, tablatures, lyrics

Guitar lessons | Add/correct | Request | Top 50 tabs Artists:  A B C D E F G H I J K L M N O P Q R S T U V W X Y Z 0-9

Fighting For Nothing 1 Guitar Tabs – Meg And Dia

CD, Sheet music, Poster

Do you like Fighting For Nothing 1? Share with your friends now
ChordsChords v2Chords v3Chords v4TabsTabs v2UkuleleUkulele v2
Fighting for Nothing
Meg & Dia
Here Here, and Here 

Intro:
e|-----4--2--1--2--1--|
B|--2-----------------|
G|--------------------|
D|--------------------|X4
A|--------------------|
E|--------------------|

When I was younger, I wish that I would have known better.
e|--2-----------------------------7---|
B|--2-----------------------------7---|
G|--3-----------------------------8---|
D|--4-----------------------------9---|
A|--4-----------------------------9---|
E|--2-----------------------------7---|

Better love makes a fat romance, that lasts for more than a shoe shine.
e|--7-------------------------------------------------|
B|--7-------------------------------------------------|
G|--8-------------------------------------------------|
D|--9-------------------------------------------------|
A|--9-------------------------------------------------|
E|--7-------------------------------------------------|

Iím older, took all the words of my mother, saying,
e|--2------------------------7---|
B|--2------------------------7---|
G|--3------------------------8---|
D|--4------------------------9---|
A|--4------------------------9---|
E|--2------------------------7---|

It could be worse, could be born with that disease, instead of catching it first.
e|--7-------------------------------------------------|
B|--7-------------------------------------------------|
G|--8-------------------------------------------------|
D|--9-------------------------------------------------|
A|--9-------------------------------------------------|
E|--7-------------------------------------------------|

So letís go back, to the first time, that I met you, in your Chevy, with your hands 
e|--6------------------------4---------------------2-|
B|--7------------------------4---------------------2-|
G|--8------------------------6---------------------4-|
D|--8------------------------6---------------------4-|
A|--6------------------------4---------------------2-|
E|--6------------------------4---------------------2-|

Stretched, and me crying, screaming, ďMercy. Mercy.Ē
e|-2--------------------------4-----------|
B|-2--------------------------4-----------|
G|-4--------------------------6-----------|
D|-4--------------------------6-----------|
A|-2--------------------------4-----------|
E|-2--------------------------4-----------|

But I know that, I was put here, to fight Vikings, in the cold war, with my arms out, in the 
e|--6---------------------------4---------------------2-|
B|--7---------------------------4---------------------2-|
G|--8---------------------------6---------------------4-|
D|--8---------------------------6---------------------4-|
A|--6---------------------------4---------------------2-|
E|--6---------------------------4---------------------2-|

Front lines, singing, ďDare me. Dare me.Ē
e|-2-------------4------4-------|
B|-2-------------4------4-------|
G|-4-------------6------6-------|
D|-4-------------6------6-------|
A|-2-------------4------4-------|
E|-2-------------4------4-------|

But these things take time love.
e|-7----------------------|
B|-7----------------------|
G|-8----------------------|
D|-9----------------------|
A|-9----------------------|
E|-7----------------------|

These things take backbone.
e|--2---------------------|
B|--2---------------------|
G|--3---------------------|
D|--4---------------------|
A|--4---------------------|
E|--2---------------------|

And theyíll tell you what you want to hear ícause they think itís better. Better.
e|--6--------------------------------------------4------4------|
B|--7--------------------------------------------4------4------|
G|--8--------------------------------------------6------6------|
D|--8--------------------------------------------6------6------|
A|--6--------------------------------------------4------4------|
E|--6--------------------------------------------4------4------|

But you better know how to point out the liars.
e|-7------------------2------------|
B|-7------------------2------------|
G|-8------------------3------------|
D|-9------------------4------------|
A|-9------------------4------------|
E|-7------------------2------------|

Youíve got to weigh your wars make sure youíre not fighting for nothing. Nothing.
e|--6--------------------------------------------4-------4------|
B|--7--------------------------------------------4-------4------|
G|--8--------------------------------------------6-------6------|
D|--8--------------------------------------------6-------6------|
A|--6--------------------------------------------4-------4------|
E|--6--------------------------------------------4-------4------|

Are you fighting for nothing?
e|-2----------------2-|
B|-2----------------3-|
G|-4----------------4-|
D|-4----------------4-|
A|-2----------------2-|
E|-2----------------2-|

It feels like this world has been growing slowly upside down.
e|--2-----------------------------7---|
B|--2-----------------------------7---|
G|--3-----------------------------8---|
D|--4-----------------------------9---|
A|--4-----------------------------9---|
E|--2-----------------------------7---|

Maybe I should move to China, and straighten this mess out.
e|--7-------------------------------------------------|
B|--7-------------------------------------------------|
G|--8-------------------------------------------------|
D|--9-------------------------------------------------|
A|--9-------------------------------------------------|
E|--7-------------------------------------------------|

Maybe Iíll be a poet. Watch all the sky for falling words.
e|--2----------------------------7---|
B|--2----------------------------7---|
G|--3----------------------------8---|
D|--4----------------------------9---|
A|--4----------------------------9---|
E|--2----------------------------7---|
.
And write about my grandmaís curtains, or the lady who put the Chinese buffet in her purse.
e|--7-------------------------------------------------|
B|--7-------------------------------------------------|
G|--8-------------------------------------------------|
D|--9-------------------------------------------------|
A|--9-------------------------------------------------|
E|--7-------------------------------------------------|

Iíve got my mouth. Itís a weapon. 
e|--6----------6------------|
B|--7----------7------------|
G|--8----------8------------|
D|--8----------8------------|
A|--6----------6------------|
E|--6----------6------------|
Itís a bombshell. Itís a cannon. Iíve my words.
e|--4---------------------2---------|
B|--4---------------------2---------|
G|--6---------------------4---------|
D|--6---------------------4---------|
A|--4---------------------2---------|
E|--4---------------------2---------|

I wonít give them mercy. Mercy. 
e|--2----------4----4--------|
B|--2----------4----4--------|
G|--4----------6----6--------|
D|--4----------6----6--------|
A|--2----------4----4--------|
E|--2----------4----4--------|

But these things take time love.
e|-7----------------------|
B|-7----------------------|
G|-8----------------------|
D|-9----------------------|
A|-9----------------------|
E|-7----------------------|

These things take backbone.
e|--2---------------------|
B|--2---------------------|
G|--3---------------------|
D|--4---------------------|
A|--4---------------------|
E|--2---------------------|

And theyíll tell you what you want to hear ícause they think itís better. Better.
e|--6--------------------------------------------4------4------|
B|--7--------------------------------------------4------4------|
G|--8--------------------------------------------6------6------|
D|--8--------------------------------------------6------6------|
A|--6--------------------------------------------4------4------|
E|--6--------------------------------------------4------4------|

But you better know how to point out the liars.
e|-7------------------2------------|
B|-7------------------2------------|
G|-8------------------3------------|
D|-9------------------4------------|
A|-9------------------4------------|
E|-7------------------2------------|

Youíve got to weigh your wars make sure youíre not fighting for nothing. Nothing.
e|--6--------------------------------------------4-------4------|
B|--7--------------------------------------------4-------4------|
G|--8--------------------------------------------6-------6------|
D|--8--------------------------------------------6-------6------|
A|--6--------------------------------------------4-------4------|
E|--6--------------------------------------------4-------4------|

Are you fighting for nothing?
e|-2----------------2-|
B|-2----------------3-|
G|-2----------------4-|
D|-4----------------4-|
A|-4----------------2-|
E|-2----------------2-|

Iíve got my words. I hope they hurt you I hope they scar you. I hope they heal you.
e|--6------------------4-----------------2-------|
B|--7------------------4-----------------2-------|
G|--8------------------6-----------------4-------|
D|--8------------------6-----------------4-------|
A|--6------------------4-----------------2-------|
E|--6------------------4-----------------2-------|

I hope they cut you open, make you see youíve been warring for all the wrong reasons.
e|--6--------------------------------------------4-------------|
B|--7--------------------------------------------4-------------|
G|--8--------------------------------------------6-------------|
D|--8--------------------------------------------6-------------|
A|--6--------------------------------------------4-------------|
E|--6--------------------------------------------4-------------|

Make you see that some things are worth bruising for.
e|--4----------------------------2-|
B|--4----------------------------2-|
G|--6----------------------------4-|
D|--6----------------------------4-|
A|--4----------------------------2-|
E|--4----------------------------2-|

Make you see that your name is your honor code.
e|--2-------------------------4------------|
B|--2-------------------------4------------|
G|--4-------------------------6------------|
D|--4-------------------------6------------|
A|--2-------------------------4------------|
E|--2-------------------------4------------|

Make you see that your hands youíre accounted for.
e|--4----------------------------6-|
B|--4----------------------------7-|
G|--6----------------------------8-|
D|--6----------------------------8-|
A|--4----------------------------6-|
E|--4----------------------------6-|

Pick and choose where your sweat and your blood will go.
e|--6------------------------------4-------------|
B|--7------------------------------4-------------|
G|--8------------------------------6-------------|
D|--8------------------------------6-------------|
A|--6------------------------------4-------------|
E|--6------------------------------4-------------|

Make you see your lifeís not to be lived alone.
e|--4-----------------------2-------|
B|--4-----------------------2-------|
G|--6-----------------------4-------|
D|--6-----------------------4-------|
A|--4-----------------------2-------|
E|--4-----------------------2-------|

Run their spit through your hair, youíre worth nothing. Nothing.
e|--2--------------------------------4----4--------|
B|--2--------------------------------4----4--------|
G|--4--------------------------------6----6--------|
D|--4--------------------------------6----6--------|
A|--2--------------------------------4----4--------|
E|--2--------------------------------4----4--------|

But these things take time love.
e|-7----------------------|
B|-7----------------------|
G|-8----------------------|
D|-9----------------------|
A|-9----------------------|
E|-7----------------------|

These things take backbone.
e|--2---------------------|
B|--2---------------------|
G|--3---------------------|
D|--4---------------------|
A|--4---------------------|
E|--2---------------------|

And theyíll tell you what you want to hear ícause they think itís better. Better.
e|--6--------------------------------------------4------4------|
B|--7--------------------------------------------4------4------|
G|--8--------------------------------------------6------6------|
D|--8--------------------------------------------6------6------|
A|--6--------------------------------------------4------4------|
E|--6--------------------------------------------4------4------|

But you better know how to point out the liars.
e|-7------------------2------------|
B|-7------------------2------------|
G|-8------------------3------------|
D|-9------------------4------------|
A|-9------------------4------------|
E|-7------------------2------------|

Youíve got to weigh your wars make sure youíre not fighting for nothing. Nothing.
e|--6--------------------------------------------4-------4------|
B|--7--------------------------------------------4-------4------|
G|--8--------------------------------------------6-------6------|
D|--8--------------------------------------------6-------6------|
A|--6--------------------------------------------4-------4------|
E|--6--------------------------------------------4-------4------|

Are you fighting for nothing?
e|-2----------------2-|
B|-2----------------3-|
G|-2----------------4-|
D|-4----------------4-|
A|-4----------------2-|
E|-2----------------2-|





Comments


Popular Meg And Dia tabs & chords
Agree To Disagree 1 Chords
Cardigan Weather 2 Chords
Just One Of Those Things Chords
Fighting For Nothing Tabs
Roses 2 Tabs
The Last Great Star In Hollywood Tabs
The One Tabs
Lessons In New Jersey Ukulele
Teddy Loves Her Ukulele
Timmy Ukulele


Song lyrics



↑ Back to top | Tablatures and chords are parodies/interpretations of the original songs. You may use it for private study, scholarship, research or language learning purposes only
© 2014 AZChords.com Contact us | Privacy policy | DMCA | Add/correct tabs | Request tabs | Top 50 tabs