» » »

Meg And Dia, Fighting For Nothing Tabs (ver.1)

Artists:  A B C D E F G H I J K L M N O P Q R S T U V W X Y Z # 

Fighting For Nothing Tabs (ver.1)

Meg And Dia Tabs
Rating:
5/5 (2 votes)
Fighting For Nothing lessons Tabs too difficult? Try these video lessons and learn fast
                -------------------------------------------------------------------------------
                          FIGHTING FOR NOTHING - Meg & Dia
-------------------------------------------------------------------------------



Tuning: Standard


HERE, HERE AND HERE WILL CHANGE YOUR LIFE. Yea, it's THAT amazing. Buy the CD/DVD 
at meganddia.com.

Intro:
e|-----4--2--1--2--1--|
B|--2-----------------|
G|--------------------|
D|--------------------|
A|--------------------|
E|--------------------|

Verse:
"When I was younger...catching it first"
e|-----------|
B|-----------|
G|--8--4-----|
D|--8--4--4--|
A|--6--2--4--|
E|--------2--|

"So let's go back...singing "Dare me. Dare me."
e|--------------|
B|--------------|
G|--8--6--4--6--|
D|--8--6--4--6--|
A|--6--4--2--4--|
E|--------------|

Chorus:
"These things take time, love...not fighting for nothing, nothing."
e|--------------|
B|--------------|
G|--4-----8--6--|
D|--4--4--8--6--|
A|--2--4--6--4--|
E|-----2--------|

"Are you fighting for nothing, nothing?"
e|-----2--|
B|-----3--|
G|--4--4--|
D|--4--4--|
A|--2--2--|
E|--------|

~Verse~

~Chorus~

Bridge:
"I've got my words...heal you."
e|------------|
B|------------|
G|--8--10--4--|
D|--8--10--4--|
A|--6--8---2--|
E|------------|

"I hope they...You're worth nothing, nothing."
e|--------|
B|--------|
G|--8--4--|
D|--8--4--|
A|--6--2--|
E|--------|

e|-----
B|-----
G|--6--
D|--6--
A|--4--
E|-----

~Chorus~
            
Submit corrections

comments powered by Disqus
↑ Back to top | Meg And Dia Tabs for Fighting For Nothing. Lyrics for acoustic guitar and electric guitar. Tablatures and chords are parodies/interpretations of the original songs. You may use it for private study, scholarship, research or language learning purposes only