» » »

Walkng On Sunshine Tabs (ver.1)

Artists:  A B C D E F G H I J K L M N O P Q R S T U V W X Y Z # 

Walkng On Sunshine Tabs (ver.1)

Me First And The Gimme Gimmes
Rating:
0/5 (0 votes)

Hard to play? Try these video lessons and learn fast.
                Hi! This one is my first experience in TABing, but it should be ok…*lol*

Walking On Sunshine
Me First And The Gimme Gimmes


“Walking On Sunshine” is a great cover by the punkband “Me First And The Gimme Gimmes” They’ve also covered  “Country Roads”, “Phantom Of The Opera”, “Somewhere Over The Rainbow” and many more which are sure to be tabed soon…

Play 3 times with a clean sound, then 3 times with distortion and so on…

| ---------------------------------------------------
| -------------------3-3-3-3-3-- 5-5-5-----------
| -------------------3-3-3-3-3---5-5-5-----------
| -------3---3--3---1-1-1-1-1---3-3-3-----------        
|-- -----3---3--3-----------------------------------          
| -------1---1--1-----------------------------------         

Then, when he comes to “…I’m walking on sunshine…” play:

| ----------------------------------------------------
| ----------------------------------------------------
| ------5---5---5---5---3---3---3---3-------------
| ------5---5---5---5---3---3---3---3-------------  
| ------3---3---3---3---1---1---1---1-------------

And that’s all! Have fun!

PS: For users living in Germany !

I want to start a band which plays everything from heavy, punk, rock……etc.
Until then, Cya!
            
Hard to play? Try these video lessons and learn fast. | Correct




comments powered by Disqus
↑ Back to top | Tablatures and chords are parodies/interpretations of the original songs. You may use it for private study, scholarship, research or language learning purposes only