» » »

Sloop John B Tabs (ver.1)

Artists:  A B C D E F G H I J K L M N O P Q R S T U V W X Y Z # 

Sloop John B Tabs (ver.1)

Me First And The Gimme Gimmes
Rating:
0/5 (0 votes)

Tabs too difficult? Try these video lessons and learn fast.
                INTRO:
e|-------------------------------------------------------------------------------|
B|-------------------------------------------------------------------------------|
G|-9-11-------------------9--9-9--7-----9--9-9--7-----9--9-9--7-----9--9-9--7----|
D|-9-11--9-9-9-9-9-9-9-9--9--9-9--7--7--9--9-9--7--7--9--9-9--7--7--9--9-9--7--7-|
A|-7--9--9-9-9-9-9-9-9-9--7--7-7--5--7--7--7-7--5--7--7--7-7--5--7--7--7-7--5--7-|
E|-------7-7-7-7-7-7-7-7-------------5-------------5-------------5-------------5-|

VERSE: (mute all)
e|---------------------------------------------------------------------------|
B|---------------------------------------------------------------------------|
G|-5-----------5----------------5---------5----------------------------------|
D|-5-X48-5-----5-X16-3----5-----5-X8-5----5-X9--pause------------------------|
A|-3-----5-X16-3-----3-X8-5-X8--3----5-X8-3----------------------------------|
E|-------3-----------1----3----------3---------------------------------------|

CHORUS:
e|---------------------------------------------------------------------------|
B|---------------------------------------------------------------------------|
G|-5-----------5---------------5---------5-----------------------------------|
D|-5-X48-5-----5-X16-3----5----5-X8-5----5-X16-------------------------------|
A|-3-----5-X16-3-----3-X8-5-X8-3----5-X8-3-----------------------------------|
E|-------3-----------1----3---------3----------------------------------------|

SECOND VERSE:
e|---------------------------------------------------------------------------|
B|---------------------------------------------------------------------------|
G|-5-----------5------------------5---------5--------------------------------|
D|-5-X48-5-----5-----5-----3---\--5-X8-5----5-X16----------------------------|
A|-3-----5-X16-3-----5-----3---\--3----5-X8-3--------------------------------|
E|-------3-----------3-----1---\-------3-------------------------------------|

OUTRO:
e|---------------------------------------------------------------------------|
B|---------------------------------------------------------------------------|
G|---------------------------5--7--------------------------------------------|
D|-5----3----5----3----5-----5--7--5-----------------------------------------|
A|-5-X8-3-X8-5-X8-3-X8-5-X16-3--5--5-----------------------------------------|
E|-3----1----3----1----3-----------3-----------------------------------------|

Structure:
INTRO
VERSE
CHORUS
SECOND VERSE
CHORUS
OUTRO
            
Tabs too difficult? Try these video lessons and learn fast.




comments powered by Disqus
↑ Back to top | Tablatures and chords are parodies/interpretations of the original songs. You may use it for private study, scholarship, research or language learning purposes only