>
 >
On The Road Again

On The Road Again Guitar Tabs

Me First And The Gimme Gimmes - On The Road Again chords, tabs, tablatures, lyrics

Guitar lessons | Add/correct | Request | Top 50 tabs Artists:  A B C D E F G H I J K L M N O P Q R S T U V W X Y Z 0-9

On The Road Again Guitar Tabs – Me First And The Gimme Gimmes

CD, Sheet music, Poster

Do you like On The Road Again? Share with your friends now
Tabs
On the Road Again

Intro
$= 4 times
e-------------|------|
b-------------|--$--$|
g-------------|-7--9-|
d--7--6--4--2-|-7--9-|
a--7--6--4--2-|-5--7-|
E--5--4--2--0-|------|


"Wooahh.."
"= Alot
e-----|
b-----|
g---"-|
d--7--|
a--7--|
E--5--|

Verse
=16 times ^=8 times *=$ 4 times
e-------------------|
b--------^--*--*---|
g----6--4--7--9---^|
d--7--6--4--7--9--7-|
a--7--4--2--5--7--7-|
E--5--------------5-|

Chorus
e-------------|
b-------------|
g--7-----7---^|
d--7--7--7--7-|
a--5--7--5--7-|
E-----5-----5-|

Solo- For the Second part just imrovise on that scale, hammer ons and pull ofs etc. End on A.
e-----------------------------|-----------------------------|
b-----------------------------|-5--7------------------------|
g--5566--5677756--5675454424--|------5--7-------------------|
d-----------------------------|-----------5--7--------------|
a-----------------------------|----------------5--7---------|
E-----------------------------|---------------------5--8--5-|

Then Play chorus
Then play verse

Pre Outro
e-------------|
b---$--$--$--$|
g--7--9--6--7-|
d--7--9--6--7-|
a--5--7--4--5-|
E-------------|

Outro
Play intro with last two chords played dead.
End on A.





Comments


Popular Me First And The Gimme Gimmes tabs & chords
Boxer Bass Tabs
End Of The Road Bass Tabs
Favorite Things Bass Tabs
Hats Off To Larry Bass Tabs
I Sing The Body Electric Bass Tabs
Nothing Compares 2 U Bass Tabs
Phantom Of The Opera 1 Bass Tabs
Science Fiction Double Feature Bass Tabs
All My Loving Tabs
Puff The Magic Dragon Ukulele


Song lyrics



↑ Back to top | Tablatures and chords are parodies/interpretations of the original songs. You may use it for private study, scholarship, research or language learning purposes only
© 2014 AZChords.com Contact us | Privacy policy | DMCA | Add/correct tabs | Request tabs | Top 50 tabs