» » »

On The Road Again Tabs (ver.1)

Artists:  A B C D E F G H I J K L M N O P Q R S T U V W X Y Z # 

On The Road Again Tabs (ver.1)

Me First And The Gimme Gimmes
Rating:
0/5 (0 votes)

Tabs too difficult? Try these video lessons and learn fast.
                On the Road Again

Intro
$= 4 times
e-------------|------|
b-------------|--$--$|
g-------------|-7--9-|
d--7--6--4--2-|-7--9-|
a--7--6--4--2-|-5--7-|
E--5--4--2--0-|------|


"Wooahh.."
"= Alot
e-----|
b-----|
g---"-|
d--7--|
a--7--|
E--5--|

Verse
£=16 times ^=8 times *=$ 4 times
e-------------------|
b------£--^--*--*---|
g---£-6--4--7--9---^|
d--7--6--4--7--9--7-|
a--7--4--2--5--7--7-|
E--5--------------5-|

Chorus
e-------------|
b-------------|
g--7-----7---^|
d--7--7--7--7-|
a--5--7--5--7-|
E-----5-----5-|

Solo- For the Second part just imrovise on that scale, hammer ons and pull ofs etc. End on A.
e-----------------------------|-----------------------------|
b-----------------------------|-5--7------------------------|
g--5566--5677756--5675454424--|------5--7-------------------|
d-----------------------------|-----------5--7--------------|
a-----------------------------|----------------5--7---------|
E-----------------------------|---------------------5--8--5-|

Then Play chorus
Then play verse

Pre Outro
e-------------|
b---$--$--$--$|
g--7--9--6--7-|
d--7--9--6--7-|
a--5--7--4--5-|
E-------------|

Outro
Play intro with last two chords played dead.
End on A.
            
Tabs too difficult? Try these video lessons and learn fast.


comments powered by Disqus
↑ Back to top | Tablatures and chords are parodies/interpretations of the original songs. You may use it for private study, scholarship, research or language learning purposes only