>
 >
One Tin Soldier

One Tin Soldier Guitar Tabs

Me First And The Gimme Gimmes - One Tin Soldier chords, tabs, tablatures, lyrics

Guitar lessons | Add/correct | Request | Top 50 tabs Artists:  A B C D E F G H I J K L M N O P Q R S T U V W X Y Z 0-9

One Tin Soldier Guitar Tabs – Me First And The Gimme Gimmes

CD, Sheet music, Poster

Do you like One Tin Soldier? Share with your friends now
Bass TabsTabs
/ Me First and the Gimme Gimmes / Have a Ball (1997) / One Tin Soldier guitar tab

this tab is modified for 1 guitar (there are 2 in the song).

[INTRO]
e|-----------------------------------------------------------------|
B|-----------------------------------------------------------------|
G|-----------------------------------------------------------5-----|
D|-9-9-9-10-12-12-7--5-5-5-7-9-9---------------------5---5---5---5-|
A|-------------------------------9--9-9-7-7-7-9-10-5-----5---3---5-|
E|-------------------------------------------------------3-------3-|

[VERSE]					[RIFF]
e|-------------------------------    |----------|
B|-------------------------------    |----------|
G|-------------7---5-------5-----   X2    |-----|
D|-5-------2---7---5---5---5---5-    |-5x-------|
A|-5---5---2---5---3---5---3---5-    |-5x-------|
E|-3---2---0-----------3-------3-    |-3x-------|

[CHORUS]
e|-------------------------------    |-------------------------------|
B|-------------------------------    |-------------------------------|
G|---------5---------------------  X2   |-----2---5-----------5------|
D|-5---2---5---5--12-12-12-13-15-    |-5---2---5---5---5---5---5-----|
A|-5---2---3---5-----------------    |-5---0---3---5---5---3---5-----|
E|-3---0-------3-----------------    |-3-----------3---3-------3-----|

[RIFF]	    [VERSE]					[RIFF]
e|----      e|-------------------------------         e|--------|
B|----      B|-------------------------------        B|---------|
G|----      G|-------------7---5-------5-----   X2    G|--------|
D|-5x-      D|-5-------2---7---5---5---5---5-        D|-5---6---|
A|-5x-      A|-5---5---2---5---3---5---3---5-        A|-5---6---|
E|-3x-      E|-3---2---0-----------3-------3-        E|-3---4---|

[VERSE2]
e|------------------------------- e|---------------------------|
B|------------------------------- B|---------------------------|
G|-------------8---6-----------8- G|-------------8---6---------|
D|-6-------3---8---6---6---8---8- D|-6-------3---8---6---6---6-|
A|-6---6---3---6---4---6---8---6- A|-6---6---3---6---4---6---6-|
E|-4---3---1-----------4---6---6- E|-4---3---1-----------4---4-|

[RIFF]		[CHORUS2]
e|---        e|---------------    |--------------------------------|
B|---        B|---------------    |--------------------------------|
G|---        G|-----5---6-----    |-----3---6-----------6----------|
D|-6-         D|-6---5---6---6- x2    |-6---3---6---6---6---6---6--|
A|-6-        A|-6---3---4---6-    |-6---1---4---6---6---4---6------|
E|-4-        E|-4-----------4-    |-4-----------4---4-------4------|

[End]
e|-----------------------------------|
B|-----------------------------------|
G|-6---5---3---5---6---5---3---5-----|
D|-6---5---3---5---6---5---3---5---6-|
A|-4---3---1---3---4---3---1---3---6-|
E|---------------------------------4-|





Comments


Popular Me First And The Gimme Gimmes tabs & chords
Blowin' In The Wind Bass Tabs
Build Me Up Buttercup Bass Tabs
Phantom Of The Opera Bass Tabs
Rainbow Connection Bass Tabs
Who Put The Bomp 2 Bass Tabs
Ain No Sunshine Tabs
Only The Good Die Young Tabs
Phantom Of The Opera Song 1 Tabs
Somewhere Over The Rainbow 2 Tabs
Summertime Tabs


Song lyrics



↑ Back to top | Tablatures and chords are parodies/interpretations of the original songs. You may use it for private study, scholarship, research or language learning purposes only
© 2014 AZChords.com Contact us | Privacy policy | DMCA | Add/correct tabs | Request tabs | Top 50 tabs