>
 >
Nothing Comapres To You

Nothing Comapres To You Guitar Tabs

Me First And The Gimme Gimmes - Nothing Comapres To You chords, tabs, tablatures, lyrics

Guitar lessons | Add/correct | Request | Top 50 tabs Artists:  A B C D E F G H I J K L M N O P Q R S T U V W X Y Z 0-9

Nothing Comapres To You Guitar Tabs – Me First And The Gimme Gimmes

CD, Sheet music, Poster

Do you like Nothing Comapres To You? Share with your friends now
Tabs
this is a really good song by a really good band but they only play covers, they should
do theyr own stuff, but meh theyr still good. i like spikes voice when it goes high on
the "Nothing" it sounds cool, well rock on!!

band:me first and the gimme gimmes
album:i dont know lol

h -hammer on
p -pull off
b -bend
rb-release bending
v -vibrato
/ -slide up
\ -slide down
<<-pick slide
pm-palm muting
x -Left-Hand-Muting


Verse: Guitar 1
play 4x
e|----x---x---x---x--3---3---3---3----5-x-5-x-5-x-5-x----x---x-3-x-3-x---|
B|--5-x-5-x-5-x-5-x--3---3---3---3----5-x-5-x-5-x-5-x--5-x-5-x-3-x-3-x---|
G|--5-x-5-x-5-x-5-x--4-x-4-x-4-x-4-x--5-x-5-x-5-x-5-x--5-x-5-x-4-x-4-x---|
D|--5-x-5-x-5-x-5-x--5-x-5-x-5-x-5-x--7-x-7-x-7-x-7-x--5-x-5-x-5-x-5-x---|
A|--3-x-3-x-3-x-3-x--5-x-5-x-5-x-5-x--7-x-7-x-7-x-7-x--3-x-3-x-5-x-5-x---|
E|----x---x---x---x--3-x-3-x-3-x-3-x--5-x-5-x-5-x-5-x----x---x-3-x-3-x---|

but 4th time don't play the C&G chords in the end but an E
while the second guitar picks a high E or F chord (do what
you like the best but I think an E Powerchord sounds better)
and slides down.

  GUITAR 1!!!           GUITAR 2!!!
e|--0-0-0-0-0-0-0-0--|-------|
B|--0-0-0-0-0-0-0-0--|-------|
G|--1-1-1-1-1-1-1-1--|-------|
D|--2-2-2-2-2-2-2-2--|--9\---|
A|--2-2-2-2-2-2-2-2--|--7\---|
E|--0-0-0-0-0-0-0-0--|-------|

Chorus:

Guitar 1&2

e|---------------------------------------------------|
B|---------------------------------------------------|
G|---------5-5-5-5---------5-5-5-5-------------------|
D|-3-3-3-3-5-5-5-5-3-3-3-3-5-5-5-5-5-5-5-5-5-5-5-5---|
A|-3-3-3-3-3-3-3-3-3-3-3-3-3-3-3-3-5-5-5-5-5-5-5-5---|
E|-1-1-1-1---------1-1-1-1---------3-3-3-3-3-3-3-3---|

then play Verse again 4x but last time with Powerchords only
and only the E-chord as an barré!!!

Chorus 2:
(with the high "Nothin'" i love it)

e|-------------------------------------------------------|
B|-------------------------------------------------------|
G|---------5-5-5-5---------------------------------------|
D|-3-3-3-3-5-5-5-5-7-7-7-7-5-5-5-5-5-5-5-5-5-5-5-5-5-5---|
A|-3-3-3-3-3-3-3-3-7-7-7-7-5-5-5-5-5-5-5-5-5-5-5-5-5-5---|
E|-1-1-1-1---------5-5-5-5-3-3-3-3-3-3-3-3-3-3-3-3-3-3---|

then play Verse 2x with Powerchords (no barrés)

and then Guitar 1 plays 3x Chorus 2 and stops at the A chord
and solutes to the G chord slowly with feedback and all that
stuff..

Guitar 2 plays this:
                        | last time kill your guitar here !!!TILT!!!
e|---------------------------------------|
B|---------------------------------------|
G|--5-5-5-/-7-7-/-9-9-9--9-9-9-\-7-7-7---|
D|--x-x-x---x-x---x-x-x--x-x-x---x-x-x---|
A|--3-3-3-/-5-5-/-7-7-7--7-7-7-\-5-5-5---|
E|---------------------------------------|

nothing compares to this song...

this is the 110% right way to play this song so go learn it its pretty easy to sing and 
to it, thats why i like it.

-kaneathus, rock on dudes





Comments


Popular Me First And The Gimme Gimmes tabs & chords
Crazy Bass Tabs
Isn't She Lovely Bass Tabs
Leaving On A Jet Plane Bass Tabs
Sloop John B. Bass Tabs
All My Loving Tabs
End Of The Road Tabs
I'll Be There Tabs
Mandy Tabs
Tomorrow Tabs
Uptown Girl 1 Tabs


Song lyrics



↑ Back to top | Tablatures and chords are parodies/interpretations of the original songs. You may use it for private study, scholarship, research or language learning purposes only
© 2014 AZChords.com Contact us | Privacy policy | DMCA | Add/correct tabs | Request tabs | Top 50 tabs