» » »

My Favorite Things Tabs (ver.1)

Artists:  A B C D E F G H I J K L M N O P Q R S T U V W X Y Z # 

My Favorite Things Tabs (ver.1)

Me First And The Gimme Gimmes
Rating:
0/5 (0 votes)
Tabs too difficult? Try these video lessons and learn fast.
                Allright guys, Im not sure if this is correct, I know I dont have the strumming patern but just listen to figure it out

Intro                                    Verse 1     play 2 times                   Chorus

e------------------------|--------------------------------------|---------------------------------------
--------------------------|--------------------------------------|---------------------------------------
---------------5---3----|----------7------5-------------7-----|-----7------------------7--5-----5---
---7---3---5---5---3---|---7---3--7--5--5--3--3--3--7--2--|--7--7--7---3--2---3--7--5--2-5---
---7---3---5---3---1---|---7---3--5--5--3--3--3--3--5--2--|--7--5--7---3--2---3--5--3--2-3---
E-5---1---3------------|---5---1------3-----1--1--1------0--|--5------5--1--0---1---------0------

Bridge                       Verse 2                             Bridge 2       (I dunno what this is,
                                                                                              Verse leading to the chorus?) 
e------------------|------------------------------------|------------|------------------------------------
-------------------|------------------------------------|------------|------------------------------------
----------4--6--5-|--4-----8------6------------8-----|--4--6--5-|--4-----8------6-----------8-------
---5--3--4--6--5-|--4--4--8--6--6--4--4--4--8--3-|--4--6--5-|--4--4--8--6--6-4--4--4--8--3---
---5--3--2--4--3-|--2--4--6--6--4--4--4--4--6--3-|--2--4--3-|--2--4--6--6--4-4--4--4--6--3---
E-3--1------------|-----2------4-----2--2--2------1-|-----------|------2-----4-----2--2--2-----1---

Chorus (different then the other)           Verse 3? (same as verse 1 repeat twice)

e--------------------------------------------|-----------------------------------|-
----------------------------------------------|----------------------------------|-
---4---8---4-------------------------5---3-|----------7----------------7------|-
---4---8---4--4---3----7---3---5---5---3-|---7--3--7--5--3--3--3--7--2--|-
---2---6---2--4---3----7---3---5---3---1-|---7--3--5--5--3--3--3--5--2--|-
E--------------2---1----5---1---3----------|---5--1-----3--1--1--1------0--|-

Chorus

e-----------------------------------------|-------------------|-------------------------------------
------------------------------------------|--------------------|------------------------------------
--------7-------------------7---5-----5-|---------4---6---5-|-4-----8------6------------8------
----7---7---7--3---2---3--7--5--2--5-|--5--3--4---6---5-|-4--4--8--6--6--4-4--4--8---3--
----7---5---7--3---2---3--5--3--2--3-|--5--3--2---4---3-|-2--4--6--6--4--4-4--4--6---3--
E--5-------5---1---0---1---------0-----|-3--1--------------|----2------4-----2--2--2------1—

                                                                    Outro

e-----------|------------------------------------|----------------------------------------------------
------------|------------------------------------|-----------------------------------------------------
---4--6--5-|--4-----8------6-------------8----|-4-----4----------------6------6-----8--6-------6-
---4--6--5-|--4--4--8--6--6--4--4--4--8--3-|-4--8--4--4--3--4--8--6--3--6--3--8--6—3--6-
---2--4--3-|--2--4--6--6--4--4--4--4--6--3-|-2--8--2--4--3--4--8--4--3--4--3--6--4--3---4-
E-----------|-----2------4-----2--2--2------1-|----6------2--1--2--6-----1------1---------1-----
            
Tabs too difficult? Try these video lessons and learn fast.


comments powered by Disqus
↑ Back to top | Tablatures and chords are parodies/interpretations of the original songs. You may use it for private study, scholarship, research or language learning purposes only