» » »

I'm So Lonesome I Could Cry Bass tabs (ver.1)

Artists:  A B C D E F G H I J K L M N O P Q R S T U V W X Y Z # 

I'm So Lonesome I Could Cry Bass tabs (ver.1)

Me First And The Gimme Gimmes
Rating:
0/5 (0 votes)

Hard to play? Try these video lessons and learn fast.
                Bass Comes in at 31 seconds

G-----------------------------------------------------------------|
D-----------------------------------------------------------------|
A-1-1-1-1-1-1-1-1-1-1-1-1-1-1-1-1-1-1-1-1-1-1-1-1-1-1-1-1-1-1-1-1-|
E-----------------------------------------------------------------|

G-----------------------------------------------------------------|
D-1-1-1-1-1-1-1-1-1-----------------1-1-1-1-1-1-1-1-3-3-3-3-3-3-3-|
A-------------------1-1-1-1-1-1-1-1-------------------------------|
E-----------------------------------------------------------------|
listen for slides and note changes

Solo part (53 seconds)
G-----------------------------------------------------------------|
D-----------------------------------------3-3-3-3-3-3-3-3-3-3-3-3-|
A-----------------------------------------------------------------|
E-3-3-3-3-3-3-3-3-3-3-3-3-3-3-3-3-3-3-3-3-------------------------|

G-----------------------------------------------------------------|
D-1-1-1-1-1-1-1-1-1-----------------1-1-1-1-1-1-1-1-3-3-3-3-3-3-3-|
A-------------------1-1-1-1-1-1-1-1-------------------------------|
E-----------------------------------------------------------------|

Verse again
G-----------------------------------------------------------------|
D-----------------------------------------------------------------|
A-1-1-1-1-1-1-1-1-1-1-1-1-1-1-1-1-1-1-1-1-1-1-1-1-1-1-1-1-1-1-1-1-|
E-----------------------------------------------------------------|

G-----------------------------------------------------------------|
D-1-1-1-1-1-1-1-1-1-----------------1-1-1-1-1-1-1-1-3-3-3-3-3-3-3-|
A-------------------1-1-1-1-1-1-1-1-------------------------------|
E-----------------------------------------------------------------|
            
Hard to play? Try these video lessons and learn fast. | Correct




comments powered by Disqus
↑ Back to top | Tablatures and chords are parodies/interpretations of the original songs. You may use it for private study, scholarship, research or language learning purposes only