» » »

End Of The Road Bass tabs (ver.1)

Artists:  A B C D E F G H I J K L M N O P Q R S T U V W X Y Z # 

End Of The Road Bass tabs (ver.1)

Me First And The Gimme Gimmes
Rating:
0/5 (0 votes)

Hard to play? Try these video lessons and learn fast.
                
Verse 1(bass enters at 0:14)
G:------------------------------------------------------------------|
D:------------------------------------------------------------------|
A:-6~~~~~~~----------------5~~~----3~~~~~~~----------------1~~~-----|x1
E:------------------------------------------------------------------|

G:------------------------------------------------------------------|
D:------------------------------------------------------------------|
A:------------------------------------------------------------------|x1
E:-4~~~~~~~--------3~~~~~~~--------1~~~~~~~----/---6~~~~~~~---------|

Repeat:
Verse 1

Pre Chorus
G:------------------------------------------------------------------|
D:------------------------------------------------------------------|
A:-3~~~~~~~--------2~~~~~~~--------1~~~~~~~-------------------------|x1
E:-------------------------------------------------1~~~~~~~---------|

G:------------------------------------------------------------------|
D:------------------------------------------------------------------|
A:------------------------------------------------------------------|x1
E:-4~~~~~~~--------3~~~~~~~--------4~~~~~~~--------6~~~~~~~---------|

G:--------------------------|
D:--------------------------|
A:--------------------------|x1
E:--------------------------|

Chorus
G:------------------------------------------------------------------|
D:------------------------------------------------------------------|
A:-6-66-66-6-66-66-6-66-66-5-55-55-3-33-33-3-33-33-3-33-33-1-11-11--|x1
E:------------------------------------------------------------------|

G:------------------------------------------------------------------|
D:------------------------------------------------------------------|
A:------------------------------------------------------------------|x1
E:-4-44-44-4-44-44-3-33-33-3-33-33-4-44-44-4-44-44-6-66-66-6-66-66--|

Repeat:
Chorus

Verse 2 
G:------------------------------------------------------------------|
D:------------------------------------------------------------------|
A:-6-66-66-6-66-66-6-66-66-5-55-55-3-33-33-3-33-33-3-33-33-1-11-11--|x1
E:------------------------------------------------------------------|

G:------------------------------------------------------------------|
D:------------------------------------------------------------------|
A:------------------------------------------------------------------|x1
E:-4-44-44-4-44-44-3-33-33-3-33-33-4-44-44-4-44-44-6-66-66-6-66-66--|

Repeat:
Verse 2
Pre Chorus

Rest until 2:08

Bridge
G:---------3~--------------3~--------------0~--------------0~-------|
D:-----5~------5~------5~------5~------1~------1~------1~------1~---|
A:-6~--------------6~--------------3~--------------3~---------------|x1
E:------------------------------------------------------------------|

G:------------------------------------------------------------------|
D:---------1~--------------0~--------------1~--------------3~-------|
A:-----3~------3~------1~------1~------3~------3~------5~------5~---|x1
E:-4~--------------3~--------------4~--------------6~---------------|

Repeat:
Chorus

Chorus Pt. 2
G:---------3~--------------3~--------------0~--------------0~-------|
D:-----5~------5~------5~------5~------1~------1~------1~------1~---|
A:-6~--------------6~--------------3~--------------3~---------------|x1
E:------------------------------------------------------------------|

G:----------------------------------------------------------------------------------|
D:----------------------------------------------------------------------------------|
A:-----------------------------------------------------------------6~~~~~~~---------|x1
E:-4-44-44-4-44-44-3-33-33-3-33-33-4-44-44-4-44-44-6-66-66-6-66-66------------------|
            
Hard to play? Try these video lessons and learn fast. | Correct




comments powered by Disqus
↑ Back to top | Tablatures and chords are parodies/interpretations of the original songs. You may use it for private study, scholarship, research or language learning purposes only