» » »

Me First And The Gimme Gimmes, Crazy Bass tabs (ver.1)

Artists:  A B C D E F G H I J K L M N O P Q R S T U V W X Y Z # 

Crazy Bass tabs (ver.1)

Me First And The Gimme Gimmes Tabs
 Rating:
4/5 (4 votes)
Crazy lessons Tabs too difficult? Try these video lessons and learn fast
                
Intro
G:-----------------------------------|
D:-----------------------666-----666-|
A:---------33333333/77777---77777----|x8
E:-55555557--------------------------|

Verse 1
G:------------------------------------------------------------------|
D:------------------------------------------------------------------|
A:-----------------3333333333333333----------------5555555555555555-|x4
E:-5555555555555555----------------3333333333333333-----------------|

Chorus
G:------------------------------------------------------------------|
D:-3333333333333333-------------------------------------------------|
A:-----------------3333333333333333----------------5555555555555555-|x2
E:---------------------------------3333333333333333-----------------|

Verse 2
G:------------------------------------------------------------------|
D:------------------------------------------------------------------|
A:-----------------3~~~~~~~------------------------5~~~~~~~---------|x2
E:-5~~~~~~~------------------------3~~~~~~~-------------------------|

G:------------------------------------------------------------------|
D:------------------------------------------------------------------|
A:-----------------3333333333333333----------------5555555555555555-|x1
E:-5555555555555555----------------3333333333333333-----------------|

Repeat:
Chorus

Bridge
G:------------------------------------------------------------------|
D:------------------------------------------------------------------|
A:-----------------3~~~~~~~------------------------5~~~~~~~---------|x1
E:-5~~~~~~~------------------------3~~~~~~~-------------------------|

G:------------------------------------------------------------------|
D:------------------------------------------------------------------|
A:------------------------------------------------------------------|x1
E:-5~~~~~~~~~~~~~~~~~~~~~~~~~~~~~~~---------------------------------|

G:-------------------------------------------------------------------|
D:-/77777777777777775555555555555555---------------------------------|
A:----------------------------------99999999999999998888888888888888-|x1
E:-------------------------------------------------------------------|

G:------------------------------------------------------------------|
D:-77777777777777775555555555555555---------------------------------|
A:---------------------------------99999999999999995555555555555555-|x2
E:------------------------------------------------------------------|

Chorus/Outro
G:------------------------------------------------------------------|
D:-3333333333333333-------------------------------------------------|
A:-----------------3333333333333333----------------5555555555555555-|x3
E:---------------------------------3333333333333333-----------------|

G:------------------------------------------------------------------|
D:-3333333333333333-------------------------------------------------|
A:-----------------3333333333333333---------------------------------|x1
E:---------------------------------33333333333333335~~~~~~~---------|
            
Submit corrections

comments powered by Disqus
↑ Back to top | Me First And The Gimme Gimmes Bass for Crazy. Lyrics for acoustic guitar and electric guitar. Tablatures and chords are parodies/interpretations of the original songs. You may use it for private study, scholarship, research or language learning purposes only