» » »

Los Angeloser Tabs (ver.1)

Artists:  A B C D E F G H I J K L M N O P Q R S T U V W X Y Z # 

Los Angeloser Tabs (ver.1)

Meat Loaf
Rating:
1/5 (1 vote)

Hard to play? Try these video lessons and learn fast.
                (Intro)


Track 1: Chords

E|---------------------------|---------------------------|---------------------------|
B|---------------------------|---------------------------|---------------------------|
G|---------------------------|-8--------8---8---8--------|---------------------------|
D|-6--------6---6---6--------|-8--------8---8---8--------|-8--------8---8---8--------|
A|-6--------6---6---6--------|-6--------6---6---6--------|-8--------8---8---8--------|
E|-4--------4---4---4--------|---------------------------|-6--------6---6---6--------|


E|---------------------------------|---------------------------|---------------------------|
B|---------------------------------|---------------------------|---------------------------|
G|-8---8-------8---8---8---8---8---|---------------------------|-8--------8---8---8--------|
D|-8---8-------8---8---8---8---8---|-6--------6---6---6--------|-8--------8---8---8--------|
A|-6---6-------6---6---6---6---6---|-6--------6---6---6--------|-6--------6---6---6--------|
E|---------------------------------|-4--------4---4---4--------|---------------------------|


E|---------------------------|---------------------------------|-4-----------4---4---4-----------|
B|---------------------------|---------------------------------|-4-----------4---4---4-----------|
G|---------------------------|-8---8-------8---8---8---8---8---|-5-----------5---5---5-----------|
D|-8--------8---8---8--------|-8---8-------8---8---8---8---8---|-6-----------6---6---6-----------|
A|-8--------8---8---8--------|-6---6-------6---6---6---6---6---|-6-----------6---6---6-----------|
E|-6--------6---6---6--------|---------------------------------|-4-----------4---4---4-----------|


E|-6-----------6---6---6-----------|-6-----------6---6---6--------|-6---6-------6---6---6---6---6|
B|-8-----------8---8---8-----------|-6-----------6---6---6--------|-8---8-------8---8---8---8---8|
G|-8-----------8---8---8-----------|-7-----------7---7---7--------|-8---8-------8---8---8---8---8|
D|-8-----------8---8---8-----------|-8-----------8---8---8--------|-8---8-------8---8---8---8---8|
A|-6-----------6---6---6-----------|-8-----------8---8---8--------|-6---6-------6---6---6---6---6|
E|-6-----------6---6---6-----------|-6-----------6---6---6--------|-6---6-------6---6---6---6---6|


E|-4-----------4---4---4-----------|-6-----------6---6---6-----------|-6-----------6---6---6-----|
B|-4-----------4---4---4-----------|-8-----------8---8---8-----------|-6-----------6---6---6-----|
G|-5-----------5---5---5-----------|-8-----------8---8---8-----------|-7-----------7---7---7-----|
D|-6-----------6---6---6-----------|-8-----------8---8---8-----------|-8-----------8---8---8-----|
A|-6-----------6---6---6-----------|-6-----------6---6---6-----------|-8-----------8---8---8-----|
E|-4-----------4---4---4-----------|-6-----------6---6---6-----------|-6-----------6---6---6-----|


E|-6---6-------6---6---6---6---6---|
B|-8---8-------8---8---8---8---8---|
G|-8---8-------8---8---8---8---8---|
D|-8---8-------8---8---8---8---8---|
A|-6---6-------6---6---6---6---6---|
E|-6---6-------6---6---6---6---6---|

It continues/repeats from there, still workign on the rest:

I'm pretty sure theres a variation of the chord in the latter section of each bar, if 
            
Hard to play? Try these video lessons and learn fast. | Correct




comments powered by Disqus
↑ Back to top | Tablatures and chords are parodies/interpretations of the original songs. You may use it for private study, scholarship, research or language learning purposes only