» » »

Meat Loaf, Los Angeloser Bass tabs (ver.1)

Artists:  A B C D E F G H I J K L M N O P Q R S T U V W X Y Z # 

Los Angeloser Bass tabs (ver.1)

Meat Loaf Tabs
 Rating:
4/5 (4 votes)
Los Angeloser lessons Tabs too difficult? Try these video lessons and learn fast
1
                                                  Los Angeloser
                                   Meat Loaf


Verse
G------------------------------------------------------------------------|
D-------------1-1---1-1-------------------0-0-3-3-5-3---1-1-3-3-5-5-6-6--|
A-----3-3-4-4-----------4-4-3-3-1-1---1-1--------------------------------|
E--4-4-------------------------------------------------------------------|
(Repeated over the whole verse)


Chorus
G-------------------------------------------------------|
D-6---6-6-6---5---5-5-5---3---3-3-3---1-1-3-3-4-4-5-5---|
A-------------------------------------------------------|
E-------------------------------------------------------|
(Repeated over the whole chorus)
            
Submit corrections

comments powered by Disqus
↑ Back to top | Meat Loaf Bass for Los Angeloser. Lyrics for acoustic guitar and electric guitar. 1 Tablatures and chords are parodies/interpretations of the original songs. You may use it for private study, scholarship, research or language learning purposes only